Song name
# A B C D E F G H I J K L M N O P Q R S T U V W X Y Z

Washya - World Beauty tab

-----------------------------------------------------------------------------
                        World Beauty - Washya
-----------------------------------------------------------------------------
Tuning: Standard (EBGDAE)
Intro/Verses/Chorus
E|-------0---------0---------0-0---------------2-|
B|---------0---------0-------4-3-------0-------2-|
G|-----5---------5---------5---------4-------4---|
D|---2---------2---------2---------5-------5-----|
A|-0---------0---------0---------0-------0-------|
E|-----------------------------------------------|

Lead (slow)
E|--------------------------------------------------------------|
B|--------------------------------------------------------------|
G|--------------------------------------7/8-/10p8p7-------------|
D|-5h7~-----5-/8p7p5h8p7p5h8p7p5------9-------------10p8p7------|
A|------5h7----------------------5/7~----------------------7/9~-|
E|--------------------------------------------------------------|

E|-15-15p13----14-14p12----13-13p11-------------------|
B|----------12----------11----------10----------------|
G|-------------------------------------10-10p8p7------|
D|-----------------------------------------------5/7~-|
A|----------------------------------------------------|
E|----------------------------------------------------|

E|------------------------------------------------------------------|
B|------------------------------------------------------------------|
G|-7h8p7---11-7h8p7---11-7h8p7---11-11p10p8--------------7h8p7------|
D|-------9----------9----------9------------10p8p7---7/9------------|
A|-------------------------------------------------9-----------7/9~-|
E|------------------------------------------------------------------|

E|----------------------------------------------------------12h14p12h14p12-|
B|----------------------------------------------------14p12----------------|
G|-------------------------------------14\12----12h14----------------------|
D|----------------14p12-------14p13p12-------14----------------------------|
A|-------14p12h14-------13h14----------------------------------------------|
E|-12h14-------------------------------------------------------------------|
PM ***** ******** ***** ***** ***** 

E|-12h14p12h14p12h15~-/16p15p13-------/16p15p13----/14p13p11----13p11p9----|
B|------------------------------15p14-----------14-----------13---------11-|
G|-------------------------------------------------------------------------|
D|-------------------------------------------------------------------------|
A|-------------------------------------------------------------------------|
E|-------------------------------------------------------------------------|

E|-12p10p9-----------------------------10b~-----------------------------|
B|---------10-----10-----10-----10----------8p7p5---5-------------------|
G|------------9-7----9-7----9-7----9-7------------7---8p7p5---8p7p5-----|
D|----------------------------------------------------------7-------3/5-|
A|----------------------------------------------------------------------|
E|----------------------------------------------------------------------|

E|--------------------------------------------------------------------------|
B|--------------------------------------------------------------------------|
G|--7h8p7p5---8p7p5---------9p8p6---------/9p8p6h9p8p6-6p5p3h6p5p3----------|
D|----------7-------7p5p4-7-------7h8p7p5--------------------------6p5p3----|
A|-----------------------------------------------------------------------5~-|
E|--------------------------------------------------------------------------|

Fade Out
Tap to rate this tab
 
# A B C D E F G H I J K L M N O P Q R S T U V W X Y Z