Song name
# A B C D E F G H I J K L M N O P Q R S T U V W X Y Z

Washya - Grind Down The Concrete tab

-----------------------------------------------------------------------------
                     Grind Down The Concrete - Washya
-----------------------------------------------------------------------------
Tuning: Standard (EBGDAE)
Intro/Verses
E|-------------------------|
B|-------------------------|
G|-------------------------|
D|-------------------------|
A|-2-2-2-2-2-2-2-2-2-2-2-2-|
E|-0-0-0-0-0-0-0-0-0-0-0-0-|
PM * * * * * * * * * * * * 

Main Riff/Chorus
E|----------------------------------------------------------|
B|----------------------------------------------------------|
G|----------------------------------------------------------|
D|---------------------------------------------------/8\7\6-|
A|--------7-8-7-5-2--5-6-5-3-2-/7-8-7-5-2--5-6-5-3-2-/6\5\4-|
E|-//xx\\-5-6-5-3-0--3-4-3-1-0-/5-6-5-3-0--3-4-3-1-0--------|

Heavy Interlude (play fast)
E|---------------------------------------------|
B|---------------------------------------------|
G|---------------------------------------------|
D|-----------------------5-------------------3-|
A|-------5-----3---0h2h3---33-5----5/6/7-3/4-1-|
E|-0h2h3---3-5---5--------------33-3/4/5-1/2---|x2
PM ***** * * * * * ***** * ** * ** 

Ending 
E|----------------------|
B|----------------------|
G|----------------------|
D|-----------7----------|
A|-------7/8-5-7/8-10-2-|
E|-/xx\\-5/6---5/6-8--0-|
Tap to rate this tab
# A B C D E F G H I J K L M N O P Q R S T U V W X Y Z