Song name
# A B C D E F G H I J K L M N O P Q R S T U V W X Y Z

Washya - A Place Too Rest My Head tab

-----------------------------------------------------------------------------
                      A Place Too Rest My Head - Washya
-----------------------------------------------------------------------------
Tuning: Drop D (EBGDAD)
Intro
E|--------------------------|
B|--------------------------|
G|----------2---------------|
D|----44454---22-------2----|
A|-22------------44445------|
D|-----------------------00-|x2

Verses
E|---------------------|
B|---------------------|
G|---------------------|
D|----66676-4----------|
A|-22-44454-2-33-55556-|
D|-22---------33-55556-|

Chorus
E|---------------------------------------------------------|
B|---------------------------------------------------------|
G|---------------------------------------------------------|
D|---------------7-7---------------9-9---------------5-5\\-|
A|-1111/2222/444-5-5-1111/2222/444-7-7-1111/2222/444-3-3\\-|
D|-1111/2222/444-----1111/2222/444-----1111/2222/444-------|
Tap to rate this tab
# A B C D E F G H I J K L M N O P Q R S T U V W X Y Z