Song name
# A B C D E F G H I J K L M N O P Q R S T U V W X Y Z

Washya - Enemy Blimp tab

-----------------------------------------------------------------------------
                             Enemy Blimp - Washya
-----------------------------------------------------------------------------
Tuning: Drop D (DADGBE)
Intro/Verses
E|-----3-----2---0-------1-----0---0-------2-----1-|
B|---3-----3-------3---1-----1-------1---1-----0-1-|
G|-------------------------------------------------|
D|-0-----0-----0-----0-----0-----0-----0-----0-----|
A|-------------------------------------------------|
D|-------------------------------------------------|

Chord In Verse (Keep playing until chorus)
E|---|
B|---|
G|---|
D|-5-|
A|-5-|
D|-5-|x many

Chorus (Guitar 1)
E|-----------------------|
B|-----------------------|
G|-7-----7---------------|
D|-7-----7----5-5-3-3333-|
A|-5-x5--4-x5-3-2-1-1111-|
D|-----------------------|
PM                  **** 

Chorus (Guitar 2)
E|--------------------|
B|-1----3-------------|
G|-0----2-------------|
D|-2----0-5-----------|
A|-3-x5---3-x5-0-0000-|
D|-------------0-0000-|
PM               **** 

Lead
E|-------14----------------14p13----------------14p12-------14p13-15~~\\-|
B|-13h15----15p13----13h15-------15p13----13h15-------14p12--------------|
G|----------------14-------------------14--------------------------------|
D|-----------------------------------------------------------------------|
A|-----------------------------------------------------------------------|
D|-----------------------------------------------------------------------|
Tap to rate this tab
# A B C D E F G H I J K L M N O P Q R S T U V W X Y Z