Song name
# A B C D E F G H I J K L M N O P Q R S T U V W X Y Z

Washya - Mexican Drive By tab

-----------------------------------------------------------------------------
                       Mexican Drive By - Washya
-----------------------------------------------------------------------------
Tuning: Drop D (EBGDAD)
Intro
E|-----------------------------------------------|
B|-----------------------------------------------|
G|-----------------------------------------------|
D|-----------------------------------------------|
A|-55555-55-5-7/8--22222-22-2-4/5-00000-00-0-1/2-|
D|-55555-55-5-7/8--22222-22-2-4/5-00000-00-0-1/2-|
PM ***** ** *      ***** ** *     ***** ** * 

Verses
E|--------------------------------------------------------------------------|
B|--------------------------------------------------------------------------|
G|--------------------------------------------------------------------------|
D|--------------------------------------------------------------------------|
A|--------------------------------------------------------------------------|
D|-55555555/88888888/99999999\33333333/55555555/88888888\77777777/3333-3-33-|
PM ******************************************************************* * ** 

Chorus
E|-----------------------------------------|
B|-----------------------------------------|
G|-5------333--------7-777-------5---------|
D|-5------333--------7-777-------5---------|
A|-3-5555-111-3------5-555-7-777-3-0-1-333-|
D|---5555-----333333-------7-777---0-1-333-|
PM             *****                 
Tap to rate this tab
# A B C D E F G H I J K L M N O P Q R S T U V W X Y Z