Song name
# A B C D E F G H I J K L M N O P Q R S T U V W X Y Z

Washya - String Of Bad Luck tab

-----------------------------------------------------------------------------
                         String Of Bad Luck - Washya
-----------------------------------------------------------------------------
Tuning: Drop D (EBGDAD)
Intro
E|--------------------------------------------|
B|--------------------------------------------|
G|--------------------------------------------|
D|------------2h3p2---------------3p2---------|
A|-3h5----3h5----------3h5----3h5-----3h5-1-0-|
D|-----00-----------00-----00-------------1-0-|
PM     **           **     ** 

Main Riff/Chorus
E|-----------------------------------|
B|-----------------------------------|
G|-----------------------------------|
D|-----3-2-----3-2-----3-2-------6-5-|
A|-3-5-3-2-3-5-3-2-3-5-3-2-3-5-6-4-3-|
D|-3-5-----3-5-----3-5-----3-5-6-----|

Verses
E|-------------------------------------|
B|-------------------------------------|
G|-------------------------------------|
D|-------------------------------------|
A|-000-0--000-0--000-0--111-11-4-3-1-0-|
D|-000-0--000-0--000-0--111-11-4-3-1-0-|
PM *** *  *** *  *** * 
Tap to rate this tab
# A B C D E F G H I J K L M N O P Q R S T U V W X Y Z