Song name
# A B C D E F G H I J K L M N O P Q R S T U V W X Y Z

Washya - Spirit Of The Damned tab

-----------------------------------------------------------------------------
                     Spirit Of The Damned - Washya
-----------------------------------------------------------------------------
Tuning: Standard (EBGDAE)
Intro
E|------------------------------------------------------------------|
B|------------------------------------------------------------------|
G|------------------------------------------------------------------|
D|----7---8---10--8---55/7---------3h4p3---3---7---8---10--8--------|
A|----5---6---8---6---33/5-----3-5-------5-----5---6---8---6---55/7-|
E|-00---0---0---0---0------3-6---------------00--0---0---0---0-33/5-|
PM **   *   *   *   *      * * * * ***** *   **  *   *   *   * 

Verses
E|------------0---------------0--------------7h8p7-----|
B|----------3---------------5--------------7-----------|
G|------4-------4-------6-------6-------8----------8---|
D|--------4-------4-------6-------6-------8----------8-|
A|---2----------------4---------------6----------------|
E|-0----------------0---------------0------------------|

Chorus
E|--------------------------------------------------------------|
B|--------------------------------------------------------------|
G|--------------------------------------------------------------|
D|-22-2-5-22-2-7------5--------22-2-7--------22-2-8\7-----------|
A|-00-0-3-00-0-5-22-2-3-22-2-3-00-0-5-22-2-5-00-0-6\5-222-2-222-|
E|---------------00-0---00-0-1--------00-0-3----------000-0-000-|
PM                                                    *** * *** 
Tap to rate this tab
# A B C D E F G H I J K L M N O P Q R S T U V W X Y Z