Song name
# A B C D E F G H I J K L M N O P Q R S T U V W X Y Z

Washya - Digger tab

-----------------------------------------------------------------------------
                         Digger - Washya
-----------------------------------------------------------------------------
Tuning: Drop C (FADCGC)
Intro
D|-------------------|
A|----19----19----19-|
F|----17----17----17-|
C|-------------------|
G|-00----00----00----|
C|-00----00----00----|X3
PM **    **    ** 

Part 2 (Verses)
D|------------------------------------|
A|------------------------------------|
F|------------------------------------|
C|------------------------------------|
G|-00-2233022-2233022-2233022-2233022-|
C|-00-2233022-2233022-2233022-2233022-|

Chorus
D|----------------------------------------------|
A|----------------------------------------------|
F|----------------------------------------------|
C|----------------------------------------------|
G|-00-2255233-22-543022-22552233-2233022-543022-|
C|-00-2255233-22-543022-22552233-2233022-543022-|

Interlude
D|---------------------------------|
A|---------------------------------|
F|---------------------------------|
C|---------------------------------|
G|-11001100-0011-11100-11-11001/44-|
C|-11001100-0011-11100-11-11001/44-|
Tap to rate this tab
 
# A B C D E F G H I J K L M N O P Q R S T U V W X Y Z