Song name
# A B C D E F G H I J K L M N O P Q R S T U V W X Y Z

Washya - High Noon Showdown tab

-----------------------------------------------------------------------------
                    High Noon Showdown - Washya
-----------------------------------------------------------------------------
Tuning: Drop D (DADGBE)
Intro
E|--------------------------------------------------------------------------|
B|--------------------------------------------------------------------------|
G|--------------------------------------------------------------------------|
D|-555-55-5555-55-555-55-5555-777-77-7777-77-777-77-7777--------------------|
A|-333-33-3333-33-333-33-3333-555-55-5555-55-555-55-5555-777-77-7777-77-777-|
D|-------------------------------------------------------777-77-7777-77-777-|

E|-----------------------------------------|
B|-----------------------------------------|
G|-----------------------------------------|
D|-----------------------------------------|
A|-555-55-5555-55-5555-222-22-2222-22-2222-|
D|-555-55-5555-55-5555-222-22-2222-22-2222-|

Verses (Palm Muted Slightly)
E|--------------------------------------------------------------------------|
B|--------------------------------------------------------------------------|
G|--------------------------------------------------------------------------|
D|-555-55-5555-55-555-55-5555-777-77-7777-77-777-77-7777--------------------|
A|-333-33-3333-33-333-33-3333-555-55-5555-55-555-55-5555-777-77-7777-77-777-|
D|-------------------------------------------------------777-77-7777-77-777-|
PM **  *  ***  *  **  ** ***  **  *  ***  *    * *  ***  **  *  ***     ** 

E|-----------------------------------------|
B|-----------------------------------------|
G|-----------------------------------------|
D|-----------------------------------------|
A|-555-55-5555-55-5555-222-22-2222-22-2222-|
D|-555-55-5555-55-5555-222-22-2222-22-2222-|
PM **   *  **     ***       * ***   * *** 

Chorus
E|---------------------------------------------------------|
B|---------------------------------------------------------|
G|---------------------------------------------------------|
D|-555-55-55-----------------555-5\3-333-------------------|
A|-333-33-33-5555-55-22-2-22-333-3\1-111-1111-11-0000-00-0-|
D|-----------5555-55-22-2-22-------------1111-11-0000-00-0-|
Tap to rate this tab
# A B C D E F G H I J K L M N O P Q R S T U V W X Y Z