Song name
# A B C D E F G H I J K L M N O P Q R S T U V W X Y Z

Washya - Losing Computer Control tab

-----------------------------------------------------------------------------
                        Losing Computer Control - Washya
-----------------------------------------------------------------------------
Tuning: Drop D (EBGDAD)
Intro
E|---------------------------|
B|---------------------------|
G|---------------------------|
D|-----------8\7-5/7-3/5/8\\-|
A|-----------6\5-3/5-1/3/6\\-|
D|-000000000-----------------|x1
PM ********* 

Main Riff (Distortion)
E|---------------------------|
B|---------------------------|
G|---------------------------|
D|---------------------------|
A|-000000000-6-5-3-5-1-3-6\\-|
D|-000000000-6-5-3-5-1-3-6\\-|
PM ********* 

Verses
E|--------------------------------------|
B|--------------------------------------|
G|--------------------------------------|
D|--------------------------------------|
A|-0-00-3-0-00-6-5-0-00-6-5-3-5-3-2-1-0-|
D|-0-00-3-0-00-6-5-0-00-6-5-3-5-3-2-1-0-|
PM * **   * **     * ** * * * * * * *  

Chorus
E|-------------------------------------------------------|
B|-------------------------------------------------------|
G|-------------------------------------------------------|
D|------777-------101010-----------5/7-5/7---------------|
A|-0-00-555-3-555-8-8-8--8-888h10-/3/5-3/5-0-111-333-6\\-|
D|-0-00-----3-555--------8-888h10----------0-111-333-6\\-|

Interlude
E|-------------------------------------------------------------|
B|-------------------------------------------------------------|
G|------------------------------------------------------3*-----|
D|-----------------5/8-7/8-----------------6-3---3-------------|
A|-----------------3/6-5/6---------------------5----6-5----5/7-|
D|-0-0-0-0-0-0-0-0---------0-0-0-0-0-0-0-0---------------------|
PM * * * * * * * *         * * * * * * * * 

Tap to rate this tab
# A B C D E F G H I J K L M N O P Q R S T U V W X Y Z