Song name
# A B C D E F G H I J K L M N O P Q R S T U V W X Y Z

Washya - One And Another tab

-----------------------------------------------------------------------------
                    One and Another - Washya
-----------------------------------------------------------------------------
Tuning: Standard (EBGDAE)
Intro
E|--------------------------|
B|--------------------------|
G|---2--------2-------------|
D|-------2--------2---------|
A|-4---4----4---4---444-4/6-|
E|------------------222-2/4-|x2

Verses
E|---------------0------------------------------0--------|
B|---6-------6------------------0---6-----------0--------|
G|-------0------------------6-----------6---6------------|
D|-8---8---8---8---8-88-8-8---8---8---8---8---8---6-66-6-|
A|-----------------6-66-6-------------------------4-44-4-|
E|-------------------------------------------------------|

Chorus
E|------------------------------------------------------------------|
B|------------------------------------------------------------------|
G|------------------------------------------------------------------|
D|-9-999--------------------------9-999-----------------3-333-3-333-|
A|-7-777-5-555-3-333-222-3-4-44-4-7-777-7-777-5-555-444-1-111-1-111-|
E|-------3-333-1-111-000-1-2-22-2-------5-555-3-333-222-------------|
Tap to rate this tab
# A B C D E F G H I J K L M N O P Q R S T U V W X Y Z