Song name
# A B C D E F G H I J K L M N O P Q R S T U V W X Y Z

Washya - Blooding The Young tab

-----------------------------------------------------------------------------
                           Blooding The Young - Washya
-----------------------------------------------------------------------------
Tuning: Drop C (DAFCGC)
Intro
D|----------------------------------|
A|----------------------------------|
F|----------------------------------|
C|----------------------------------|
G|----------------------------------|
C|-00000-000-0-000--00000-000-0-000-|x5
PM ***** *** * ***  ***** *** * ***

Part 2 (Play Fast)
D|------------------------------------------------------------------------|
A|------------------------------------------------------------------------|
F|-------------6-------------6-------------6-------------6----------------|
C|-----6-------------6-------------6-------------6---------6h7p6----------|
G|-6h7---7p6h7---6h7---7p6h7---6h7---7p6h7---6h7---7p6h7---------7p6p4----|
C|---------------------------------------------------------------------66-|
PM *** * *****   *** * *****   *** * *****   *** * *****    

Verses
D|-------------------------------------------------|
A|----------------------------------------------6*-|
F|--------------------------------------7----------|
C|-----------------------7----------------7---7----|
G|-------0-00-2-0-3-/8-5---6-0-00-2-0-3-----5------|
C|-/xx\\-0-00-2-0-3----------0-00-2-0-3------------|
PM       * **   *            * **   *   

D|----------------------------------------------------|
A|----------------------------------------6-----------|
F|------------------------------------7---------------|
C|-----------------8----------------7---7-----7-------|
G|-0-00-2-0-3-/9-6---7-0-00-2-0-3-5-------------5-----|
C|-0-00-2-0-3----------0-00-2-0-3-----------------6b~-|
PM * **   *            * **   * 

Chorus
D|------------------------------------------------------------|
A|------------------------------------------------------------|
F|------------------------------------------------------------|
C|------------------------------------------------------------|
G|-2h4444444p22/444444-7-----7-----7-0-11-000-11-----4444\2-0-|
C|-2h4444444p22/444444-7777777-77777-0-11-000-111111-4444\2-0-|
PM                      *****  ****             **** 
Tap to rate this tab
# A B C D E F G H I J K L M N O P Q R S T U V W X Y Z