Song name
# A B C D E F G H I J K L M N O P Q R S T U V W X Y Z

Washya - Island Of Fruits tab

-----------------------------------------------------------------------------
                            Island Of Fruits - Washya
-----------------------------------------------------------------------------
Tuning: Standard (EBGDAE)
Intro
E|------------------5-----------------------1---------0-|
B|-7------7---7h8p7\5p3h5p3-----3---3h4p3\1---1h3p1---3-|
G|----------8---------------------4-----------------2-2-|
D|------9---------------------5-------------------------|
A|----9---------------------5---------------------------|
E|------------------------------------------------------|

Verses
E|-------7---8-7-5------------5---6-5-3------------3---4-3-1----------|
B|-777-7---7-------555-5-55-5---5-------333-3-33-3---3-------111-1-11-|
G|-888-------------666-6-66-------------444-4-44-------------222-2-22-|
D|-999-------------777-7-77-------------555-5-55-------------333-3-33-|
A|-999-------------777-7-77-------------555-5-55-------------333-3-33-|
E|--------------------------------------------------------------------|

Chorus
E|----------------------------------------------------------------------|
B|----------------------------------------------------------------------|
G|----------------------------------------------------------------------|
D|-------------999-------------11-11-11-----333-555-------------7777-77-|
A|-222-555-777-777-222-777-999-9--9--9--222-111-333-555-333-222-5555-55-|
E|-000-333-555-----000-555-777----------000---------333-111-000---------|
Tap to rate this tab
 
# A B C D E F G H I J K L M N O P Q R S T U V W X Y Z