Song name
# A B C D E F G H I J K L M N O P Q R S T U V W X Y Z

Washya - Bad Blood tab

-----------------------------------------------------------------------------
                   Bad Blood - Washya
-----------------------------------------------------------------------------
Tuning: Drop D (EBGDAD)
Intro (Palm Muted)
E|--------------------------------------------------------|
B|--------------------------------------------------------|
G|-7-7----7---9-7-7------8-7-10-10---7----9-9\7-------9\7-|
D|-----10---9-------8-10-----------9---10-------10-10-----|
A|--------------------------------------------------------|
D|--------------------------------------------------------|

E|-------------------------------------------------------------------|
B|-------------------------------------------------------------------|
G|-------------------------------------------------------------------|
D|----0h3-3p2p0---0h3-3\2---0h3-0h2p0---0------0h2-3p2p0---0h2p3p2p0-|
A|-00-----------3---------0-----------3---3333-----------3-----------|
D|-00---------------------0---------------3333-----------------------|

E|-----------------------------------------------------|
B|-----------------------------------------------------|
G|-----------------------------------------------------|
D|-0h2---0h3-0h2---2h3p2p0---0h3---3p2p0---0h3-0h2-555-|
A|-----3---------0---------0-----2-------3---------333-|
D|-------------------------0---------------------------|

Verses
E|--------------------------------------------------|
B|--------------------------------------------------|
G|--------------------------------------------------|
D|-3p0-2---3p2p0-------2----0h3---2-------0---2h3p2-|
A|-------3-------0h2h3---3------0---3p2p0---3-------|
D|-----------------------3--------------------------|

Chorus
E|-----------------------------------------------------------------------|
B|-----------------------------------------------------------------------|
G|-----------------------------------------------------------------------|
D|----0h2---3p2p0------55-0h3---2---2p0-----3p2p0----55-77-0h3p0---2p0-3-|
A|-00-----3-------2-00-33-----0---3-----0h2-------00-33-55-------3-----1-|
D|-00---------------00----------------------------00---------------------|

E|-------------------------------------------|
B|-------------------------------------------|
G|-------------------------------------------|
D|----55----77----55----77----55----77----3~-|
A|-00-33-00-55-00-33-00-55-00-33-00-55-00-1~-|
D|-00----00----00----00----00----00----00----|

Bridge
E|-------------------------------------------------------------333-333-|
B|-------------------------------------------------------------333-444-|
G|-------------------------------------------------------------333-444-|
D|---333---333---3---3333/5555--55/7-5/7-55/7-5/7-55/7-5/10------------|
A|-0-111-0-111-0-1-0-1111/3333--33/5-3/5-33/5-3/5-33/5-3/8--00---------|
D|-0-----0-----0---0----------------------------------------00---------|
Tap to rate this tab
# A B C D E F G H I J K L M N O P Q R S T U V W X Y Z