Song name
# A B C D E F G H I J K L M N O P Q R S T U V W X Y Z

Washya - Joyful tab

-----------------------------------------------------------------------------
                                Joyful - Washya
-----------------------------------------------------------------------------
Tuning: Standard (EBGDAE)
Intro
E|--------------------|
B|--------------------|
G|-/8b-8b-/10p8p7-----|
D|----------------8b~-|
A|--------------------|
E|--------------------|
  
Verses
E|-------|      |---------------------|
B|-2-3-2-|      |---------------------|
G|-2-2-2-|      |---------------------|
D|-0-0-0-|      |---------------0-----|
A|-------|      |------0--------0-----|
E|-------| Then |-3h5b---0h3h5b---3b~-|

Verses
E|------------------------------|
B|-3----------3----3-----3----2-|
G|-2---4------2----2-----2----2-|
D|-0---4-----------0----------0-|
A|-----2-0000---00---000---00---|
E|------------------------------|
PM       ****   **   ***   ** 

Chorus
E|--------------------------------------------|
B|--------------------------------------------|
G|-------2------------4----/8b-8b-/10p8p7-----|
D|-5--7--2--2---8--6--4--4----------------8b~-|
A|-5--7--0--2---8--6--2--4--------------------|
E|-3--5-----0--/6--4-----2--------------------|

Solo
E|----------9------------------------10\8------------------------13\11-12b~-|
B|-------10---10------------------11------9-------------------14-------12b~-|
G|-12-11---------11\9-------14-12-----------11p10p8-----16-15---------------|
D|--------------------7~----------------------------10~---------------------|
A|--------------------------------------------------------------------------|
E|--------------------------------------------------------------------------|
Tap to rate this tab
 
# A B C D E F G H I J K L M N O P Q R S T U V W X Y Z