Song name
# A B C D E F G H I J K L M N O P Q R S T U V W X Y Z

Washya - Stranded tab

-----------------------------------------------------------------------------
                           Stranded - Washya
-----------------------------------------------------------------------------
Tuning: Standard (EBGDAE)
Intro/Chorus (Play fast)
E|-------------------------------------------------------------|
B|-------------------------------------------------------------|
G|-------------------------------------------------------------|
D|-------9-8-7-------8-7-6-------7-6-5-------6-5-4-------5-4-3-|
A|-9-8-7-7-6-5-8-7-6-6-5-4-7-6-5-5-4-3-6-5-4-4-3-2-5-4-3-3-2-1-|
E|-7-6-5-------6-5-4-------5-4-3-------4-3-2-------3-2-1-------|x8

verses (Play fast all verses)
E|-------------------------------------------------------------------------|
B|-------------------------------------------------------------------------|
G|-------------------------------------------------------------------------|
D|-------------------------------------------------------------------------|
A|-------7-6-------7-6-5-------6-5-------6-5-4-------5-4-------5-4-3-------|
E|-7-6-5-----7-6-5-------6-5-4-----6-5-4-------5-4-3-----5-4-3-------4-3-2-|
PM * * * * * * * * * * * * * * * * * * * * * * * * * * * * * * * * * * * * 

E|---------------------------------------|
B|---------------------------------------|
G|---------------------------------------|
D|---------------------------------5-4-3-|
A|-4-3-------4-3-2-------3-2-------3-2-1-|
E|-----4-3-2-------3-2-1-----3-2-1-------|
PM * * * * * * * * * * * * * * * * 

interlude 
E|---------------------------------|---------|
B|---------------------------------|---------|
G|---------------------------------|---------|
D|-----------2---------------------|---------|
A|-------5-----2h3-------5-4-------|-6\5\4\2-|
E|-0-2-3---4-------3-2-0-----2-x16-|-4\3\2\0-|
PM * * * * *   *** * * * * * *       * * *   
Tap to rate this tab
 
# A B C D E F G H I J K L M N O P Q R S T U V W X Y Z