Song name
# A B C D E F G H I J K L M N O P Q R S T U V W X Y Z

Washya - Douse The Fire tab

-----------------------------------------------------------------------------
                   Douse The Fire - Washya
-----------------------------------------------------------------------------
Tuning: Drop D (EBGDAD)
Intro
E|-------------------------------------------------------------------------|
B|-------------------------------------------------------------------------|
G|-----------------------------------------------------------------6h7p6---|
D|--------------------------7\6-6h7p6------------------------------------7-|
A|--------------------------5\5-------7\\----------------------------------|
D|-0000-00-0-0--0000-00-0-0---------------0000-00-0-0--0000-00-0-0---------|
PM **** ** * *  **** ** * *               **** ** * *  **** ** * *        

E|-----------------------------------------------------------------------|
B|-----------------------------------------------------------------------|
G|-----------------------------------------------------------------------|
D|--------------------------8\7-7h8p7---10p8-----------------12\10\9-----|
A|--------------------------6\6-------8------7\\-------------10\8\-7-543-|
D|-0000-00-0-0--0000-00-0-0----------------------0000-00-0-0---------543-|
PM **** ** * *  **** ** * *                      **** ** * * 

Verses
E|----------------------------------------------------------|
B|----------------------------------------------------------|
G|--------------------------------------/11111111\9999------|
D|--------7-------7\6-------6/9-------7---------------------|
A|--------5-------5\4-------4/7-------5-/9-9-9-9-\7777-5555-|
D|-000000---00000-----00000-----00000------------------5555-|
PM ******   *****     *****     *****                  **** 

Chorus
E|------------------------------------------------------------------|
B|------------------------------------------------------------------|
G|-----6/99-9-9-----9/10-10/12-9/10-10/12----------------/777\333/5-|
D|---------------------------------------------2----3/5\3-----------|
A|-000-4/77-7-7-000-7/8--8/10--7/8--8/10-000-1-0-1-/1/3\1/555\111/3-|
D|-000----------000----------------------000-1---1------------------|
PM ***          ***                      *** *   * 
Tap to rate this tab
# A B C D E F G H I J K L M N O P Q R S T U V W X Y Z