Song name
# A B C D E F G H I J K L M N O P Q R S T U V W X Y Z

Washya - I Like Too Sing Rock And Roll tab

-----------------------------------------------------------------------------
              I Like Too Sing Rock And Roll - Washya 
-----------------------------------------------------------------------------
Tuning: Drop D (DADGBE)
Intro 
E|------------------------------------------------------|
B|------------------------------------------------------|
G|------------------------------------------------------|
D|-------------------------5p3---3----------------------|
A|-3h5---3h5---3h5-------5-----5-----333333-6666-55-3-0-|
D|-----0-----0-----0-3h5-----------0-333333-6666-55-3-0-|
PM     *     *     * ***           * 

Verses
E|--------------------------|
B|--------------------------|
G|--------------------------|
D|--------------------------|
A|-3-5--5-6--3333-6-666-5-3-|
D|-3-5--5-6-/3333-6-666-5-3-|
   ^ ^  ^ ^ 
     Hold

Chorus
E|----------------------------------------------------------------|
B|----------------------------------------------------------------|
G|----------------------------------------------------------------|
D|-------6--------------6--------------6--------------------------|
A|---3h5---3h5-5555-3h5---3h5-3333-3h5---3h5-1111/3333-5555-55-55-|
D|-0-----------5555-----------3333-----------1111/3333-5555-55-55-|
PM *                                                   **** ** ** 

Solo
E|----------------------------------------------------------------|
B|----------------------------------------------------------------|
G|----------------------------------3---5-------------------------|
D|---/6p5p3---3------------/6p5p3h5---5----------/6p5p3-----------|
A|----------5---5-3-------------------------------------5h6p5\3~~-|
D|-3----------------0000-3----------------0000-3------------------|
PM *                **** *                **** * 

Intro 
E|------------------------------------------------------|
B|------------------------------------------------------|
G|------------------------------------------------------|
D|-------------------------5p3---3----------------------|
A|-3h5---3h5---3h5-------5-----5-----333333-6666-55-3-0-|
D|-----0-----0-----0-3h5-----------0-333333-6666-55-3-0-|
PM     *     *     * ***           * 

Verses
E|--------------------------|
B|--------------------------|
G|--------------------------|
D|--------------------------|
A|-3-5--5-6--3333-6-666-5-3-|
D|-3-5--5-6-/3333-6-666-5-3-|
   ^ ^  ^ ^ 
     Hold

Chorus
E|----------------------------------------------------------------|
B|----------------------------------------------------------------|
G|----------------------------------------------------------------|
D|-------6--------------6--------------6--------------------------|
A|---3h5---3h5-5555-3h5---3h5-3333-3h5---3h5-1111/3333-5555-55-55-|
D|-0-----------5555-----------3333-----------1111/3333-5555-55-55-|
PM *                                                   **** ** ** 

Tap to rate this tab
# A B C D E F G H I J K L M N O P Q R S T U V W X Y Z