Song name
# A B C D E F G H I J K L M N O P Q R S T U V W X Y Z

Washya - Its A Long Way To The Top tab

-----------------------------------------------------------------------------
                        It's A Long Way To The Top - Washya
-----------------------------------------------------------------------------
Tuning: Standard (EBGDAE)
Intro/Verses (Malcolm)
E|---------|
B|---------|
G|-2-2-x-2-|
D|-2-2-x-2-|
A|-0-0-x-0-|
E|---------|x many

Intro (Angus)   (verses)
E|-------66-|   |-6-6-|
B|-------66-|   |-6-6-|
G|-----6----|   |-----|
D|-6h7------|   |-----|
A|----------|   |-----|
E|----------|x2 |-----| x5 

Chorus (Both)
E|-------|
B|-9-7---|
G|-9-7-7-|
D|-9-7-7-|
A|-7-5-7-|
E|-----5-|

"try playing in a rock roll band......."
E|-----|
B|-777-|
G|-777-|
D|-777-|
A|-555-|
E|-----|

Back to chorus 

bagpipe section (Angus) (Malcolm) (Also during solo)
E|-----5-5~\-|          |---------|
B|-----------|          |---------|
G|-5h6-------|          |-2-2-x-2-|
D|-----------|          |-2-2-x-2-|
A|-----------|          |-0-0-x-0-|
E|-----------|          |---------|

Guitar Solo (Angus)

          E|----------------------------|
          B|-14b-14-10h12----10----10~\-|
G, D, A.  G|--------------11----11------|
          D|----------------------------|
          A|----------------------------|
          E|----------------------------|

G, D, A.  E|--------------17-18-17------------|
          B|-16b-14-16-16----------18-17------|
          G|-----------------------------18\\-|
          D|----------------------------------|
          A|----------------------------------|
          E|----------------------------------|


G, D, A.  E|-----------------------16--------------16-----------|
          B|-14-14----14-14----16b----16-14b-12h14----15-17b\\\-|
          G|-------15-------15----------------------------------|
          D|----------------------------------------------------|
          A|----------------------------------------------------|
          E|----------------------------------------------------|

Tap to rate this tab
# A B C D E F G H I J K L M N O P Q R S T U V W X Y Z