Song name
# A B C D E F G H I J K L M N O P Q R S T U V W X Y Z

Washya - A Tribute To The Gunned Down Tourist tab

-----------------------------------------------------------------------------
               A Tribute To The Gunned Down Tourist - Washya
-----------------------------------------------------------------------------
Tuning: Drop D (DADGBE)
Intro/Chorus
E|------------------------------------------------|
B|------------------------------------------------|
G|-6------6\5------6/9------9/1212121212\10101010-|
D|------------------------------------------------|
A|-4------4\3------4/7------7/1010101010\8-8-8-8--|
D|---0000-----0000-----0000-----------------------|
PM   ****     ****     ****   

E|-------------------------------|
B|-------------------------------|
G|-6------6/9------9/12\7/9------|
D|-------------------------------|
A|-4------4/7------7/10\5/7------|
D|---0000-----0000----------7777-|x3
PM   ****     ****          **** 

Verses
E|----------------------------------------------------------------|
B|----------------------------------------------------------------|
G|----------------------------------------------------------------|
D|----77-55-77----77-55-77----77-55-77----77-55-77-88-77----------|
A|-------------------------------------------------------33-55-33-|
D|-00----------33----------55----------77-------------------------|
pm **          **          **          ** 

E|----------------------------------------------------------------|
B|----------------------------------------------------------------|
G|----------------------------------------------------------------|
D|----55-33-55----55-33-55----55-33-55----55-33-55-66-55----55----|
A|-------------------------------------------------------66-------|
D|-00----------11----------33----------55----------------------33-|
pm **          **          **          **                      ** 


E|--------------------------------------------------|
B|--------------------------------------------------|
G|--------------------------------------------------|
D|--------77--------55--------33--------------------|
A|--------------------------------------11----------|
D|-33-1-3----33-1-3----33-1-3----33-1-3----3-1-3-00-|
PM ** * *    ** * *    ** * *    ** * * ** * * * ** 

E|---------------------------------------------|
B|-------------------------------7h8p7---------|
G|----99-7-9----99-7-9----99-7-9-------9-7-----|
D|-----------------------------------------7/9-|
A|---------------------------------------------|
D|-00--------00--------77----------------------|
PM **        **        ** 

E|-------------------------------------------------------------------|
B|------------------------------------------------12h13p12-----------|
G|----12-12-10-12------12-12-10-12----12-12-10-12----------14--------|
D|------------------------------------------------------------12/14~-|
A|-------------------------------------------------------------------|
D|-00-------------1010-------------88--------------------------------|
PM **             ****             ** 

Heavy Part 
E|-------------------------------------------------------------|
B|-------------------------------------------------------------|
G|--------9---7---3--------------------------5----9------------|
D|--------9---7---3--------------------------5----9------------|
A|-000000-7-0-5-0-1-000000-5-8-5-7-3-5-------3---/7---5h7------|
D|-000000---0---0---000000-5-8-5-7-3-5555555---3----7-5h777777-|x3
PM ******   *   *   ******            ******   *    *    ***** 

Before Solo
E|------------------------------------------------------|
B|------------------------------------------------------|
G|---------------------5/6/7----------------------------|
D|---------------------5/6/7-----------13\12*-----------|
A|---6---3---8\7---3---3/4/5---5---8------------8---678-|
D|-0---0---0-----0---0-------0---0---0--------0---0-678-|x2
PM *   *   *     *   *       *   *   *        *   * 

Lead Solo (fast)
E|-18p17-------------------------------16h19b--------|
B|-------19p16-------------------15h17--------17b17b-|
G|-------------19p18-------15h18---------------------|
D|-------------------19p16---------------------------|
A|---------------------------------------------------|
D|---------------------------------------------------|

E|-----------14----------16p14-------16----------------------16p14-17b17b-|
B|-----11h15----15p11h15-------15/17----17p13----13h17p13h17-------15b15b-|
G|-/12----------------------------------------14--------------------------|
D|------------------------------------------------------------------------|
A|------------------------------------------------------------------------|
D|------------------------------------------------------------------------|

E|--------10p8p7--------8p7p5--------6p5p3---5--------|
B|-/7-8-7--------/5-4-5-------/3-2-3-------5---5-3-5~-|
G|----------------------------------------------------|
D|----------------------------------------------------|
A|----------------------------------------------------|
D|----------------------------------------------------|

E|-------------------------------------------------------------9b-9b--18b-|
B|-------------------------------------------------------------9b-9b-/18b-|
G|-----------------------------------------7h9p7h9p7h10p7h10p7------------|
D|---------------------------------6h8p6h8--------------------------------|
A|---------5h7p5h7---------5h7p5h7----------------------------------------|
D|-3h5p3h5---------5h7p5h7------------------------------------------------|
PM ******* ******* ******* ******* 

E|-/15p12----12h15p12----12h15p12----12----12h15p12-------14h17p14----14-|
B|--------14----------14----------14----14----------14/16----------16----|
G|-----------------------------------------------------------------------|
D|-----------------------------------------------------------------------|
A|-----------------------------------------------------------------------|
D|-----------------------------------------------------------------------|

E|-14h17p14----14h17p14----14----14h17p14----------------------------|
B|----------16----------16----16----------16\14h17p14----14h17p14----|
G|----------------------------------------------------16----------16-|
D|-------------------------------------------------------------------|
A|-------------------------------------------------------------------|
D|-------------------------------------------------------------------|

E|-------------------------------------------------------------------|
B|-14h17p14----14h17p14----14----14h17p14----------------------------|
G|----------16----------16----16----------16\12h15p12----12h15p12----|
D|----------------------------------------------------14----------14-|
A|-------------------------------------------------------------------|
D|-------------------------------------------------------------------|

E|-------------------------------------------------------------------|
B|-------------------------------------------------------------------|
G|-12h15p12----12h15p12----12----12h15p12----------------------------|
D|----------14----------14----14----------14\10h13p10----10h13p10----|
A|----------------------------------------------------12----------12-|
D|-------------------------------------------------------------------|

E|------------------------------------------------|
B|------------------------------------------------|
G|------------------------------------------------|
D|-10h13p10----10----10h13p10------------------9*-|
A|----------12----12----------12\10-----10--------|
D|----------------------------------8-7----8-7----|

Heavy Part 
E|-------------------------------------------------------------|
B|-------------------------------------------------------------|
G|--------9---7---3--------------------------5----9------------|
D|--------9---7---3--------------------------5----9------------|
A|-000000-7-0-5-0-1-000000-5-8-5-7-3-5-------3---/7---5h7------|
D|-000000---0---0---000000-5-8-5-7-3-5555555---3----7-5h777777-|x3
PM ******   *   *   ******            ******   *    *    ***** 

Intro/Chorus
E|------------------------------------------------|
B|------------------------------------------------|
G|-6------6\5------6/9------9/1212121212\10101010-|
D|------------------------------------------------|
A|-4------4\3------4/7------7/1010101010\8-8-8-8--|
D|---0000-----0000-----0000-----------------------|
PM   ****     ****     ****   

E|-------------------------------|
B|-------------------------------|
G|-6------6/9------9/12\7/9------|
D|-------------------------------|
A|-4------4/7------7/10\5/7------|
D|---0000-----0000----------7777-|x3
PM   ****     ****          **** 

Verses
E|----------------------------------------------------------------|
B|----------------------------------------------------------------|
G|----------------------------------------------------------------|
D|----77-55-77----77-55-77----77-55-77----77-55-77-88-77----------|
A|-------------------------------------------------------33-55-33-|
D|-00----------33----------55----------77-------------------------|
pm **          **          **          ** 

E|----------------------------------------------------------------|
B|----------------------------------------------------------------|
G|----------------------------------------------------------------|
D|----55-33-55----55-33-55----55-33-55----55-33-55-66-55----55----|
A|-------------------------------------------------------66-------|
D|-00----------11----------33----------55----------------------33-|
pm **          **          **          **                      ** 


E|--------------------------------------------------|
B|--------------------------------------------------|
G|--------------------------------------------------|
D|--------77--------55--------33--------------------|
A|--------------------------------------11----------|
D|-33-1-3----33-1-3----33-1-3----33-1-3----3-1-3-00-|
PM ** * *    ** * *    ** * *    ** * * ** * * * ** 

E|---------------------------------------------|
B|-------------------------------7h8p7---------|
G|----99-7-9----99-7-9----99-7-9-------9-7-----|
D|-----------------------------------------7/9-|
A|---------------------------------------------|
D|-00--------00--------77----------------------|
PM **        **        ** 

E|-------------------------------------------------------------------|
B|------------------------------------------------12h13p12-----------|
G|----12-12-10-12------12-12-10-12----12-12-10-12----------14--------|
D|------------------------------------------------------------12/14~-|
A|-------------------------------------------------------------------|
D|-00-------------1010-------------88--------------------------------|
PM **             ****             ** 
Tap to rate this tab
 
# A B C D E F G H I J K L M N O P Q R S T U V W X Y Z