Song name
# A B C D E F G H I J K L M N O P Q R S T U V W X Y Z

Washya - Gold Time tab

-----------------------------------------------------------------------------
                        Gold Time - Washya
-----------------------------------------------------------------------------
Tuning: Standard (EBGDAE)  Chord progression 
Intro/Verses  (Acoustic guitar)
E|-5----5-7----7---7-9--1-11----3---3-0----0-1----1-5----5-5----7-7----0-|
B|-5----5-7----7---7-9--1-11----3---3-0----0-1----1-5----5-6----7-7----0-|
G|-6----6-8----8---8-10-2-22----4---4-1----1-2----2-5----5-5----8-8----0-|
D|-7----7-9----9---9h11-3-33----5---5-2----2-3----3-5----5-5----9-9----2-|
A|-7-xx-7-9-xx-9-x-9h11-3-33-xx-5-x-5-2-xx-2-3-xx-3-3-xx-3-3-xx-9-9-xx-2-|
E|-5-xx-5-7-xx-7-x-7-9--1-11-xx-3-x-3-0-xx-0-1-xx-1-0-xx-0-0-xx-7-7-xx-0-|

Solo
E|------------------------3----------------------5------------------2-|
B|------------------------3----------------------5----7-------------2-|
G|------5-8p7p5---5-------4----7p5-----7---------6-/6---------7\5---3-|
D|--5h7---------7---7-6-5-5-/7-----7/9---7---7\5-7------9\7p6-6\4-6-4-|
A|------------------------5----------------9-----7------------------4-|
E|------------------------3----------------------5------------------2-|
Tap to rate this tab
# A B C D E F G H I J K L M N O P Q R S T U V W X Y Z