Song name
# A B C D E F G H I J K L M N O P Q R S T U V W X Y Z

Washya - Struck By Lightning tab

-----------------------------------------------------------------------------
                        Struck By Lightning - Washya
-----------------------------------------------------------------------------
Tuning: Standard (EBGDAE)
Intro (guitar 1)
E|-0-3-5-0-7-8-0-12-10-0-5-7-0-3-4-0-1-3-----|
B|---------------------------------------4/5-|
G|-------------------------------------------|
D|-------------------------------------------|
A|-------------------------------------------|
E|-------------------------------------------|many 

(Guitar 2) Intro
E|-------------------------|
B|-------------------------|
G|-4---2-4-2---4---2-4-2---|
D|-4-2-2-4-2-7-4-2-2-4-2-5-|
A|-2-2-0-2-0-7-2-2-0-2-0-5-|
E|---0-------5---0-------3-|

Verses (Guitar 1)
E|-------------------------------------------------6-|
B|-------------------------------------8-----------6-|
G|-0-3-5---0-7-8-0-12-10-0-7-6---0-4-6---0-2-4-------|
D|-------7---------------------7---------------6h7---|
A|---------------------------------------------------|
E|---------------------------------------------------|

Verses (Guitar 2)
E|-----------------------------------------------------|
B|-----------------------------------------------------|
G|-----------------------------------------------6-4---|
D|-----4-------4-------4-------6-------6-------6-6-4-4-|
A|-222---2-222---2-222---4-444---4-444---4-444---4-2-4-|
E|---------------------------------------------------2-|
PM ***   * ***   * ***   * ***   * ***   * *** 

Chorus (guitar 1 & 2)
E|-----------------------------------------|
B|-----------------------------------------|
G|---4-2---4-2---9-8---7---4-2---4-2-------|
D|-2-4-2-2-4-2-2-9-8-7-7-5-4-2-2-4-2-2-3-5-|
A|-2-2-0-2-2-0-2-7-6-7-5-5-2-0-2-2-0-2-3-5-|
E|-0-----0-----0-----5---3-----0-----0-1-3-|

Guitar solo (Guitar 2)
E|----------------------------------------------------------|
B|-9b---------------------------------------------8h11p8p7~-|
G|-9bp7~-9b-/11p9p7---7h9p7---11p9p7---8p7h11p9p7-----------|
D|-9b---------------9-------9--------9----------------------|
A|----------------------------------------------------------|
E|----------------------------------------------------------|

E|-7-----------------------------13p12~-|
B|---10-7---7-----------7---9/11--------|
G|--------9---7---8p7-----7-------------|
D|--------------9-----9-----------------|
A|--------------------------------------|
E|--------------------------------------|

E|-15------------------------------------------------------------|
B|----13p12----13p12---------------------------------------------|
G|----------15-------15p13p12-14---------------------------------|
D|-------------------------------14p12-------14p12----12---------|
A|-------------------------------------13/15-------14----14\12~~-|
E|---------------------------------------------------------------|

Tuning: Standard (EBGDAE)
Intro (guitar 1)
E|-0-3-5-0-7-8-0-12-10-0-5-7-0-3-4-0-1-3-----|
B|---------------------------------------4/5-|
G|-------------------------------------------|
D|-------------------------------------------|
A|-------------------------------------------|
E|-------------------------------------------|many 

(Guitar 2) Intro
E|-------------------------|
B|-------------------------|
G|-4---2-4-2---4---2-4-2---|
D|-4-2-2-4-2-7-4-2-2-4-2-5-|
A|-2-2-0-2-0-7-2-2-0-2-0-5-|
E|---0-------5---0-------3-|

Verses (Guitar 1)
E|-------------------------------------------------6-|
B|-------------------------------------8-----------6-|
G|-0-3-5---0-7-8-0-12-10-0-7-6---0-4-6---0-2-4-------|
D|-------7---------------------7---------------6h7---|
A|---------------------------------------------------|
E|---------------------------------------------------|

Verses (Guitar 2)
E|-----------------------------------------------------|
B|-----------------------------------------------------|
G|-----------------------------------------------6-4---|
D|-----4-------4-------4-------6-------6-------6-6-4-4-|
A|-222---2-222---2-222---4-444---4-444---4-444---4-2-4-|
E|---------------------------------------------------2-|
PM ***   * ***   * ***   * ***   * ***   * *** 

Chorus (guitar 1 & 2)
E|-----------------------------------------|
B|-----------------------------------------|
G|---4-2---4-2---9-8---7---4-2---4-2-------|
D|-2-4-2-2-4-2-2-9-8-7-7-5-4-2-2-4-2-2-3-5-|
A|-2-2-0-2-2-0-2-7-6-7-5-5-2-0-2-2-0-2-3-5-|
E|-0-----0-----0-----5---3-----0-----0-1-3-|
Tap to rate this tab
# A B C D E F G H I J K L M N O P Q R S T U V W X Y Z