Song name
# A B C D E F G H I J K L M N O P Q R S T U V W X Y Z

Washya - Dark Spectre tab

-----------------------------------------------------------------------------
                        Dark Spectre - Washya
-----------------------------------------------------------------------------
Tuning: Drop C (DAFCGC)
Intro
D|----------------------------------------------------------|
A|----------------------------------------------------------|
F|----------------------------------------------------------|
C|--------------------------------5-------5-------5---------|
G|-----7-7h8p5----77-7-7h8----7h8---8p7h8---8p7h8---8-------|
C|-000---------00----------00-------------------------5h7p5-|
PM ***         **          ** ***   *****   *****     ***** 

Intro 2
D|--------------------------------------------------------|
A|--------------------------------------------------------|
F|-----------------------------------5---------5----------|
C|-----9-9/10\7----99-9-9/10----9/10---10\9/10---10-------|
G|-----7-7/8-\5----77-7-7/8-----7/8----8-\7/8----8--5-7-5-|
C|-000----------00-----------00---------------------5-7-5-|
PM ***          **           **                     * * * 

Verses
D|-------------------------------------------------------------|
A|-------------------------------------------------------------|
F|-------------------------------------------------------------|
C|-------------------------------8p7h8-----------------7-------|
G|------5------8p7h8------5-----------------5------7h8---8p7p5-|
C|-0000---0000-------0000---0000-------0000---0000-------------|
PM ****   ****       ****   ****       ****   **** 

Chorus
D|------------------------------------------------------------------|
A|------------------------------------------------------------------|
F|------------------------------------------------------------------|
C|----------55555555----------99999999----------------------5555555-|
G|-22222222-33333333-00000000-77777777-777777777-10-5555555-3333333-|
C|-22222222----------00000000----------777777777-10-5555555---------|
Tap to rate this tab
 
# A B C D E F G H I J K L M N O P Q R S T U V W X Y Z