Song name
# A B C D E F G H I J K L M N O P Q R S T U V W X Y Z

Washya - Signpost tab

-----------------------------------------------------------------------------
                Signpost - Washya (Grinspoon)
-----------------------------------------------------------------------------
Tuning: Drop D (DADGBE)
Intro
E|--------------------------------------------------------|
B|--------------------------------------------------------|
G|--------------------------------------------------------|
D|------------------------------------------------------3-|
A|------------------------------------------------------3-|
D|-3p0-0-3p0-0-6p0-3p0-0-3p0-0-6p0-3p0-0-6bp0-3p0-0-3p0-3-|

Main riff/Verses (Lots of distortion)
E|------------------------------------------------------|
B|------------------------------------------------------|
G|------------------------------------------------------|
D|------------------------------------------------5/777-|
A|-6-5-0-3-000--6-5-0-3-0-3-5--6-5-0-3-000--6-5-0-3/555-|
D|-6-5-0-3-000--6-5-0-3-0-3-5--6-5-0-3-000--6-5-0-------|

Chorus
E|--------------------------------|
B|--------------------------------|
G|---------------------7-77\5-555-|
D|--------------------------------|
A|-556665555555-111111-5-55\3-333-|
D|-556665555555-111111------------|

Interlude (Cool riff)
E|---------------------------------------|
B|---------------------------------------|
G|---------------------------------------|
D|---------------------------------------|
A|-0-3-5-0-6-5-0-3-5-0-6-5-0-3-0-5-0-6-3-|
D|-0-3-5-0-6-5-0-3-5-0-6-5-0-3-0-5-0-6-3-|
Tap to rate this tab
# A B C D E F G H I J K L M N O P Q R S T U V W X Y Z