Song name
# A B C D E F G H I J K L M N O P Q R S T U V W X Y Z

Washya - Our Destiny tab

-----------------------------------------------------------------------------
                             Our Destiny - Washya
-----------------------------------------------------------------------------
Tuning: Standard (EBGDAE)
Intro
E|-------------------------------------------------------------------|
B|-------------------------------------------------------------------|
G|---5-----5-----5-------3-----3-----3-------1-----1-----1-----------|
D|-----7-----7-----7\5-----5-----5-----5\3-----3-----3-----3---------|
A|-5-----5-----5-------3-----3-----3-------1-----1-----1-----2222-33-|
E|-----------------------------------------------------------0000-11-|

Verses
E|---7-----7-----7-------5-----5-----5-------0-----0-----2-|
B|-----7-----7-----7\5-----5-----5-----5\3-----3-----3---3-|
G|-5-----5-----5-------3-----3-----3-------2-----2-----2-2-|
D|---------------------------------------------------------|
A|---------------------------------------------------------|
E|---------------------------------------------------------|

Chorus
E|----------------------------------------------------------------|
B|----------------------------------------------------------------|
G|-777-55--------888-555-77---------------------555/8-------------|
D|-777-55-555-77-888-555-77-5----5----7----7----555/6-----------5-|
A|-555-33-555-77-666-333-55-5----5----7----7----333/6-----------5-|
E|--------333-55------------3-00-3-00-5-00-5-00-------6-5-3-0-1-3-|
PM                            **   **   **   **       * * * * * 

Interlude
E|------------------------------------------------------------|
B|------------------------------------------------------------|
G|------------------------------------------------------------|
D|-5-3-------------------------------7-5-/7-10---10-----------|
A|-5-3--/7-10-7-10-7-9~-5-7-5-7-5-9~-7-5-------7----7-10-7-9~-|
E|-3-1-------------------------------5-3----------------------|
PM       * ** * ** *    * * * * *         * ** * ** * ** *  

E|----------------------|
B|----------------------|
G|----------------------|
D|-/5-8---8---------9-7-|
A|------5---5-8-5-7-9-7-|
E|------------------7-5-|
PM  * * * * * * * * 
Tap to rate this tab
 
# A B C D E F G H I J K L M N O P Q R S T U V W X Y Z