Song name
# A B C D E F G H I J K L M N O P Q R S T U V W X Y Z

Washya - Cut The Bag Of Dope tab

-----------------------------------------------------------------------------
                Cut The Bag of Dope - Washya
-----------------------------------------------------------------------------
Tuning: Drop D (DADGBE)
Intro
E|-------------------------------------------------|
B|-------------------------------------------------|
G|-------------------------------------------------|
D|-------------------------------------------------|
A|-0-5-6-0-3-5-0-5-6-3-0-1-3-0-6-5-0-3-5-0-5-6-0-3-|
D|-0-5-6-0-3-5-0-5-6-3-0-1-3-0-6-5-0-3-5-0-5-6-0-3-|x3
PM * * * * * * * * * * * * * * * * * * * * * * * * 

Verses (lots of distortion)
E|--------------------------------------------------------|
B|--------------------------------------------------------|
G|------------------------555-----------------------------|
D|--------------------------------------------------3/555-|
A|-5-6-0-1-3-1-0--5-6-0-3------5-6-0-1-3-1-0--5-6-0-1/333-|
D|-5-6-0-1-3-1-0--5-6-0-3------5-6-0-1-3-1-0--5-6-0-------|


Chorus
E|---------------------------------------------|
B|---------------------------------------------|
G|------------------------------------------5*-|
D|---------------------------------------------|
A|-5-555-5/66-6-666666\11-1-111111-000-3-00----|
D|-5-555-5/66-6-666666\11-1-111111-000-3-00----|
Tap to rate this tab
# A B C D E F G H I J K L M N O P Q R S T U V W X Y Z