Song name
# A B C D E F G H I J K L M N O P Q R S T U V W X Y Z

Washya - Crazy Train tab

-----------------------------------------------------------------------------
          Crazy Train Intro - Washya (Ozzy Ozborne)
-----------------------------------------------------------------------------
Tuning: Standard (EBGDAE)
Intro "aye aye aye"
E|----------------|
B|----------------|
G|----------------|
D|----------------|
A|----00----22----|
E|-22----00----22-|

Main Riff 
E|---------------------------------------|
B|---------------------------------------|
G|---------------------------------------|
D|---------------------------------------|
A|-----------5---4---2---2-------2-------|
E|-//xx\\-22---2---2---2---5-4-5---5-4-0-|
Tap to rate this tab
# A B C D E F G H I J K L M N O P Q R S T U V W X Y Z