Song name
# A B C D E F G H I J K L M N O P Q R S T U V W X Y Z

Washya - Chimantra tab

-----------------------------------------------------------------------------
                              Chimantra - Washya
-----------------------------------------------------------------------------
Tuning: Standard (EBGDAE)
intro
E|-1111111/4444444/7777777--------8p7p5---|
B|-2222222/5555555/8888888-/7h8p7-------7-|
G|-3333333/6666666/9999999----------------|
D|----------------------------------------|
A|----------------------------------------|
E|----------------------------------------|

Part 2
E|-----------------------------5p3---|
B|------8p7p5-----6p4p3----2h3-----2-|
G|-----------------------------------|
D|-/7~--------/5~-------/3-----------|
A|-----------------------------------|
E|-----------------------------------|

Verses
E|----------------------------------------------------|
B|----------------------------------------------------|
G|------------------------------7h8p7-----------------|
D|-------/4~-------/5~-------/7---------7-------------|
A|------------------------------------9---9-8-7-2-3-2-|
E|-0-1-0-----0-1-0-----0-1-0--------------------0-1-0-|
PM * * *     * * *     * * *          * * * * *   

Verses 2 
E|------------------------------------------------|
B|------------------------------------------------|
G|------------------------------------------------|
D|--------101010--------888--------666--------444-|
A|-2-3-2-/8-8-8--2-3-2-/666-2-3-2-/444-2-3-2-/222-|
E|-0-1-0---------0-1-0------0-1-0------0-1-0------|
PM * * *         * * *      * * *      * * * 

Chorus
E|----------------------------------------------------------------|
B|----------------------------------------------------------------|
G|----------------------------------------------------------------|
D|--------9---------9-8-7-------------------9---------9-------8\\-|
A|------8-7-------8-7-6-5-x-77-787-7-77-787-7-9-7-5-2-7-9-7-5-6\\-|
E|-5-55/6----5-55/6-------x-55-565-5-55-565---7-5-3-0---7-5-3-----|
PM * **      * **           **       **             
Tap to rate this tab
# A B C D E F G H I J K L M N O P Q R S T U V W X Y Z