Song name
# A B C D E F G H I J K L M N O P Q R S T U V W X Y Z

Washya - Confusion Bass In The Place London tab

-----------------------------------------------------------------------------
          Confusion - Washya (New Order) (Bass in the place London)
-----------------------------------------------------------------------------
Tuning: Drop C (DAFCGC)
Riff/Intro
D|------------------------------------------------------------|
A|------------------------------------------------------------|
F|----9----9----9----9----9---9----9--------------------------|
C|-77---77---77---77---77---7---77------7----7----7---7----7--|
G|-----------------------------------55---55---55---5---55----|
C|------------------------------------------------------------|x4

Riff 2 "bass in the place LONDON!!"
D|----------------------------------------------------------------------|
A|----------------------------------------------------------------------|
F|----------------------------------------------------------------------|
C|------22-22-2------22-22-2------22-22-2------22-22-2------22-22-2-2-2-|
G|-4-44---------44-4---------44-4---------44-4---------44-4-------------|
C|----------------------------------------------------------------------|

Tuning: Drop C (DAFCGC)
Riff/Intro
D|------------------------------------------------------------|
A|------------------------------------------------------------|
F|----9----9----9----9----9---9----9--------------------------|
C|-77---77---77---77---77---7---77------7----7----7---7----7--|
G|-----------------------------------55---55---55---5---55----|
C|------------------------------------------------------------|x4

Riff 2 "bass in the place LONDON!!"
D|----------------------------------------------------------------------|
A|----------------------------------------------------------------------|
F|----------------------------------------------------------------------|
C|------22-22-2------22-22-2------22-22-2------22-22-2------22-22-2-2-2-|
G|-4-44---------44-4---------44-4---------44-4---------44-4-------------|
C|----------------------------------------------------------------------|

Tap to rate this tab
 
# A B C D E F G H I J K L M N O P Q R S T U V W X Y Z