Song name
# A B C D E F G H I J K L M N O P Q R S T U V W X Y Z

Washya - Shaun Of The Dead tab

-----------------------------------------------------------------------------
                          Shaun Of The Dead - Washya
-----------------------------------------------------------------------------
Tuning: Drop D (EBGDAD)
Intro
E|-----------------------------------------------|
B|-----------------------------------------------|
G|-----------------------------------------------|
D|----5h7p5---5h7p5---5-----3h5p3---7h8p7--------|
A|----------7-------7---7p5-------5-------7777\\-|
D|-00-------------------------------------7777\\-|x3
PM ** 

Main Riff/Verses (Distortion)
E|--------------------------------------|
B|--------------------------------------|
G|--------------------------------------|
D|-8-7-5-------5-3---5555---------------|
A|-6-5-3-3-666-3-1-3-3333-5/6-3-5-1-1-1-|
D|-------3-666-----3------5/6-3-5-1-1-1-|

Chorus
E|---------------------------------------------------------|
B|---------------------------------------------------------|
G|---------------------------------------------------------|
D|-------------------------5h7p5---5-7/999-3h5p3---3-3/555-|
A|-5/6-666-5/6-666-0-1-111-------7---5/777-------5---1/333-|
D|-5/6-666-5/6-666-0-1-111---------------------------------|

Interlude (Distortion)
E|-------------------------------|
B|-------------------------------|
G|-------------------------------|
D|-------------------------------|
A|-1/2/3-x-1/2/3-x-5/6-x-5/6-x-1-|
D|-1/2/3-x-1/2/3-x-5/6-x-5/6-x-1-|x4 
Tap to rate this tab
# A B C D E F G H I J K L M N O P Q R S T U V W X Y Z