Song name
# A B C D E F G H I J K L M N O P Q R S T U V W X Y Z

Washya - Turn Left tab

-----------------------------------------------------------------------------
                   Turn Left - Washya
-----------------------------------------------------------------------------
Tuning: Drop D (DADGBE)
Intro
E|-----------------------------------|
B|-----------------------------------|
G|-----------------------------------|
D|-----------------------------------|
A|-----------------------------------|
D|-3p0-0-6p0-5p0-3p0-0-6p0-5p0-3p0-0-|x3

Main Riff/Verses     (distortion)
E|-------------------------------------------------------|
B|-------------------------------------------------------|
G|-------------------------------------------------------|
D|-------------------------------------------------5/777-|
A|-5-6-1-3-0-0-0-5-6-3-5-0-1-3-5-6-1-3-0-0-0-5-6-3-3/555-|
D|-5-6-1-3-0-0-0-5-6-3-5-0-1-3-5-6-1-3-0-0-0-5-6-3-------|

Chorus
E|----------------------------------------------------------------------|
B|----------------------------------------------------------------------|
G|----------------------------------------------------------------------|
D|-5555/888\7-77777---------555\3-3333------------------------3-33-2-22-|
A|-3333/666\5-55555-5-55555-333\1-1111-3-33/666\5-55555-11111-1-11-0-00-|
D|------------------5-55555------------3-33/666\5-55555-11111-----------|

interlude (Distortion)
E|-------------------------------------------------------|
B|-------------------------------------------------------|
G|-------------------------------------------------------|
D|-------------------------------------------------------|
A|-3-4-5-4-/8\7--5-6-7-6-10\9--1-2-3-2/6\5-3h5-1h3-0h1-0-|
D|-3-4-5-4-/8\7--5-6-7-6-10\9--1-2-3-2-6\5-3h5-1h3-0h1-0-|x5

Main Riff/Verses     (distortion)
E|-------------------------------------------------------|
B|-------------------------------------------------------|
G|-------------------------------------------------------|
D|-------------------------------------------------5/777-|
A|-5-6-1-3-0-0-0-5-6-3-5-0-1-3-5-6-1-3-0-0-0-5-6-3-3/555-|
D|-5-6-1-3-0-0-0-5-6-3-5-0-1-3-5-6-1-3-0-0-0-5-6-3-------|
Tap to rate this tab
# A B C D E F G H I J K L M N O P Q R S T U V W X Y Z