Song name
# A B C D E F G H I J K L M N O P Q R S T U V W X Y Z

Washya - Venom And Tears tab

-----------------------------------------------------------------------------
           Venom and Tears - Washya (Throwdown)
-----------------------------------------------------------------------------
Tuning: Drop C (DAFCGC)
Intro (main Riff/chorus)
D|-----------------------------------------------|
A|-----------------------------------------------|
F|-----------------------------------------------|
C|-----------------------------------------------|
G|-------3h5bp3h5bp3-------5p4p3-6p5---5/8---8\7-|
C|-00000-------------0h3p0-------6p5-0-5/8-x-8\7-|
PM ***** 

D|------------------------------------------------|
A|------------------------------------------------|
F|------------------------------------------------|
C|------------------------------------------------|
G|-------3h5bp3h5bp3-------5p4p3-6p5-5bp3-----5b*-|
C|-00000-------------0h3p0-------6p5-5bp3-0h3-----|
PM *****

verses
D|------------------------------------------------------------------|
A|------------------------------------------------------------------|
F|------------------------------------------------------------------|
C|--------5/7------------------6b*-------------------------------6*-|
G|--------3/5-5/6-3--------555-----6\5--------6-5-0-3-5------555----|
C|-000000-----5/6-3-000000-555-----6\5-000000-6-5-0-3-5-0000-555----|
PM ******           ******             ******           **** 

D|--------------------------------|
A|--------------------------------|
F|--------------------------------|
C|--------55555/88888--5555355555-|
G|--------33333/66666--3333333333-|
C|-//xx\\-33333/66666--3333333333-|

Intro (main Riff/chorus)
D|-----------------------------------------------|
A|-----------------------------------------------|
F|-----------------------------------------------|
C|-----------------------------------------------|
G|-------3h5bp3h5bp3-------5p4p3-6p5---5/8---8\7-|
C|-00000-------------0h3p0-------6p5-0-5/8-x-8\7-|
PM ***** 

D|------------------------------------------------|
A|------------------------------------------------|
F|------------------------------------------------|
C|------------------------------------------------|
G|-------3h5bp3h5bp3-------5p4p3-6p5-5bp3-----5b*-|
C|-00000-------------0h3p0-------6p5-5bp3-0h3-----|
PM *****


Interlude
D|------------|   |------------------------------------|
A|------------|   |------------------------------------|
F|------------|   |----------5-------------------------|
C|------------|   |---5----------1---------------------|
G|------------|   |-------3-------------3h5----3h5-6p5-|
C|-000000-6b~-|x4 |-3---3------3---0000-----00---------|x many
PM ******                          ****     **

Part 2
D|-------------------------------------|
A|-------------------------------------|
F|-------------------------------------|
C|-------------------------------------|
G|-55555555/888888-8\7\5\3/55----------|
C|-55555555/888888-8\7\5\3/55--0000-00-|
PM *************** * * * * ** 

Intro (main Riff/chorus)
D|-----------------------------------------------|
A|-----------------------------------------------|
F|-----------------------------------------------|
C|-----------------------------------------------|
G|-------3h5bp3h5bp3-------5p4p3-6p5---5/8---8\7-|
C|-00000-------------0h3p0-------6p5-0-5/8-x-8\7-|
PM ***** 

D|------------------------------------------------|
A|------------------------------------------------|
F|------------------------------------------------|
C|------------------------------------------------|
G|-------3h5bp3h5bp3-------5p4p3-6p5-5bp3-----5b*-|
C|-00000-------------0h3p0-------6p5-5bp3-0h3-----|
PM *****

Interlude
D|------------|   
A|------------|  
F|------------|   
C|------------|   
G|------------|   
C|-000000-6b~-|x4 
PM ******                          

Outro
D|----------|
A|----------|
F|----------|
C|----------|
G|-6~-5~-0~-|
C|-6~-5~-0~-|
Tap to rate this tab
# A B C D E F G H I J K L M N O P Q R S T U V W X Y Z