Song name
# A B C D E F G H I J K L M N O P Q R S T U V W X Y Z

Washya - Beer Surf And Sun tab

-----------------------------------------------------------------------------
                      Beer, Surf and Sun - Washya
-----------------------------------------------------------------------------
Tuning: Standard (EBGDAE)
Intro Em,     D,       G,         F.
E|-0-0-------2-2-------3-3-------1-1-------|
B|-0---0-----3---3-----3---3-----1---1-----|
G|-0-----0---2-----2---0-----0---2-----2---|
D|-2-------2-0-------0-0-------0-3-------3-|
A|-2---------0---------2---------3---------|
E|-0---------0---------3---------1---------|x3

Verses
Em, D, G, F, D, G, Em.

Chorus
E|-11-11-1111-00-00-0000-222-22-2-222-33-3-333-|
B|-11-11-1111-00-22-2222-333-33-3-333-33-3-333-|
G|-22-22-2222-00-22-2222-222-22-2-222-00-0-000-|
D|-33-33-3333-22-22-2222-000-00-0-000-00-0-000-|
A|-33-33-3333-22-00-0000-000-00-0-000-22-2-222-|
E|-11-11-1111-00-00-0000-000-00-0-000-33-3-333-|

Tap to rate this tab
# A B C D E F G H I J K L M N O P Q R S T U V W X Y Z