Song name
# A B C D E F G H I J K L M N O P Q R S T U V W X Y Z

Washya - Acme Bomb tab

-----------------------------------------------------------------------------
                       Acme Bomb - Washya
-----------------------------------------------------------------------------
Tuning: Standard (EBGDAE)
Intro/Chorus
E|---------------------|
B|---------------------|
G|-4-2-4-----44-44-2---|
D|-4-2-4-4-2-44-44-2-2-|
A|-2-0-2-4-2-22-22-0-2-|
E|-------2-0---------0-|x3

Part 2
E|----|
B|----|
G|-4~-|
D|-4~-|
A|-2~-|
E|----|

Verses
E|--------------------------------|
B|--------------------------------|
G|--------------------------------|
D|----4---44---4----44-----4----4-|
A|-22---2----2---22----222---22---|
E|--------------------------------|
PM ** * * ** * * ** ** *** * ** *  

Solo
E|--------------------------------|
B|-9b-9b--------------------------|
G|-9b-9b-9-7---7---7h9p7---7------|
D|-----------9---9-------9---7/9~-| Part 1
A|--------------------------------|
E|--------------------------------|

E|-----------------------------------------------|
B|-----------------------------------------------|
G|-/11p9p7---7h11p9p7----------------------------|
D|---------9----------9h11p9p7---7h11p9----------|
A|-----------------------------9--------7h11~~\\-| Part 2
E|-----------------------------------------------|

E|---------------------------------------------------------------------|
B|-15b-----14h17p14----------14----17p15p13----13h15p13----13p11-------|
G|-15b-15b----------15h17p15----15----------14----------14-------12~\\-|
D|---------------------------------------------------------------------|
A|---------------------------------------------------------------------|
E|---------------------------------------------------------------------|
Part 3
Tap to rate this tab
# A B C D E F G H I J K L M N O P Q R S T U V W X Y Z