Song name
# A B C D E F G H I J K L M N O P Q R S T U V W X Y Z

Washya - Golden Gates tab

-----------------------------------------------------------------------------
                     Golden Gates - Washya
-----------------------------------------------------------------------------
Tuning: Standard (EBGDAE)
Intro
E|---------------------------------------|
B|-7-7-77-7-77--7-7-77-----------55\44\2-|
G|-7-7-77-7-77--7-7-77-----------55\44\2-|
D|-7-7-77-7-77--7-7-77-----------55\44\2-|
A|-5-5-55-5-55--5-5-55---3---3---33\22\0-|
E|---------------------5---5---5---------|
PM                     * * * * * 

Verses
E|----------------------------|
B|-----7--------------------9-|
G|-----7-----------------10-9-|
D|-777-7-------9-7-------10-9-|
A|-777-5-/7/10-----8/10~-8--7-|
E|-555------------------------|

Chorus
E|-----3-3-----------------------------|
B|-----3-3-7-7-----9-------------------|
G|-1-1-0-0-7-7-----9-/9-7---7----------|
D|-2-2-0-0-7-7-----9------9---9-7------|
A|-2-2-2-2-5-5-77777--------------10-9-|
E|-----3-3-0-0-00000-----------------7-|
PM             **** 
Tap to rate this tab
# A B C D E F G H I J K L M N O P Q R S T U V W X Y Z