Song name
# A B C D E F G H I J K L M N O P Q R S T U V W X Y Z

Washya - Mechanical Failure tab

-----------------------------------------------------------------------------
                    Mechanical Failure - Washya
-----------------------------------------------------------------------------
Tuning: Standard (EBGDAE)
Intro
E|--------------------------------------|
B|--------------------------------------|
G|--------------------------------------|
D|-8---8---8---8---8---8---8---5-4-2----|
A|-6-8-6-8-6-8-6-8-6-8-6-8-6-8-3-2-0-2--|
E|---6---6---6---6---6---6---6-------0--|x5
PM * * * * * * * * * * * * * *  

Verses
E|-------------------------------------------------|
B|-------------------------------------------------|
G|-------------------------------------------------|
D|----------88----------88----------88-------3p2p0-|
A|-88888888-66-88888888-66-88888888-66-3p2p0-------|
E|-66666666----66666666----66666666----------------|
PM ********    ********    ******** 

Chorus
E|-----------------------------------------------|
B|-----------------------------------------------|
G|-----------------------------------------------|
D|-------------8---7---------888777666---8-------|
A|-----8---6---6---5---6-7-8-666555444-8-6-8-654-|
E|-000-6-0-4-0---0---0-4x5x6-----------6---6-432-|
PM ***   *   *   *   *                 * * * 
Tap to rate this tab
 
# A B C D E F G H I J K L M N O P Q R S T U V W X Y Z