Song name
# A B C D E F G H I J K L M N O P Q R S T U V W X Y Z

Washya - Resolve The Issue tab

-----------------------------------------------------------------------------
                            Resolve The Issue - Washya
-----------------------------------------------------------------------------
Tuning: Drop D (DADGBE)
Intro  (Guitar 1)
E|------------------|
B|------------------|
G|------------------|
D|------------------|
A|-000--000--00--00-|
D|-000--000--00--00-|x4
PM ***  ***  **  ** 

Part 2 (Guitar 2)
E|----------------------|
B|----------------------|
G|---10---10-/12-10-----|
D|-7----7-----------7h9-|
A|----------------------|
D|----------------------|x4
PM * ** * **  ** ** *** 

Verses (Both Guitars)
E|-------------------------------------------------|
B|-------------------------------------------------|
G|---10---7h8-----7h8-8------10---------9h10-9-----|
D|----------------------7~------7h9------------10~-|
A|------------5/7-------------------3/4------------|
D|-0----0------------------0-----------------------|
PM *    *                  * 

Chorus
E|---------------------------------------------------------------------|
B|---------------------------------------------------------------------|
G|------------------------------5h6------------------------------------|
D|------3p0-----------3p0-----------3p1p0----------------------7-------|
A|-0-00-----1p0---333-----2-333-----------1-1111/33-0-00-3-0-5---5-7\\-|
D|-0-00---------1/333-------333-----------1-1111/33-0-00-3-0-------7\\-|
Tap to rate this tab
 
# A B C D E F G H I J K L M N O P Q R S T U V W X Y Z