Song name
# A B C D E F G H I J K L M N O P Q R S T U V W X Y Z

Washya - Burn Notice tab

-----------------------------------------------------------------------------
                      Burn Notice - Washya
-----------------------------------------------------------------------------
Tuning: Drop D (DADGBE)
Intro
E|------------------------------------------|
B|------------------------------------------|
G|------------------------------------------|
D|------------------------------------------|
A|------------------------------------------|
D|-0-33333-0-55555-0-66666-0-55555-0-111111-|x4
PM *       *       *       *       * 

Intro 2
E|-----------------------------------------|
B|-----------------------------------------|
G|-----------------------------------------|
D|-----------------------------------------|
A|---33333---55555---66666---55555---11111-|
D|-0-33333-0-55555-0-66666-0-55555-0-11111-|x2
PM *       *       *       *       * 

Verses  (Distortion)
E|--------------------------------------------------------------|
B|--------------------------------------------------------------|
G|--------------------------------------------------------------|
D|-----------------------------3/555----------------------5/777-|
A|--------6-3-0-3-5-3-0--6-3-0-1/333-6-3-0-3-5-3-0--6-3-0-3/555-|
D|-//xx\\-6-3-0-3-5-3-0--6-3-0-------6-3-0-3-5-3-0--6-3-0-------|

E|----------------------------|
B|----------------------------|
G|----------------------------|
D|----------------------------|
A|-6-3-0-3-5-3-0--5-6-5-1-1-3-|
D|-6-3-0-3-5-3-0--5-6-5-1-1-3-|

Chorus
E|---------------------------------------------------------------|
B|---------------------------------------------------------------|
G|---------------------------------------------------------------|
D|--------------------------------5-55~--------------------------|
A|-3-33333/66666\5555555-111111-3-------6666-333-5-555555-1-1111-|
D|-3-33333/66666\5555555-111111---------6666-333-5-555555-1-1111-|
Tap to rate this tab
# A B C D E F G H I J K L M N O P Q R S T U V W X Y Z