Song name
# A B C D E F G H I J K L M N O P Q R S T U V W X Y Z

Washya - Faded Out tab

-----------------------------------------------------------------------------
                        Faded Out - Washya
-----------------------------------------------------------------------------
Tuning: Standard (EBGDAE)
Intro
E|-------9p8------9p8---------9p8---------------------8b-8b-8b-|
B|-----------------------------------/7h10-7h9-7h10p9----------|
G|-9h11------9h11-----9-99h11-----11---------------------------|
D|-------------------------------------------------------------|
A|-------------------------------------------------------------|
E|-------------------------------------------------------------|

Verses
E|----------------------------------------------------------------|
B|----------------------------------------------------------------|
G|-----11--------11----9b-9b-9b----11h13p11----9h11----9b-9b-9b\\-|
D|-9-9----11-9-9----11----------/9----------11------11------------|
A|----------------------------------------------------------------|
E|----------------------------------------------------------------|

Chorus
E|------------------------------------------------|
B|--------------------------7-----7---------------|
G|-1111-11-11-11--99-9-9-9--7-----7--11111-1111\\-|
D|-1111-11-11-11--99-9-9-9--7-xxx-7--11111-1111\\-|
A|-9-9--9--9--9---77-7-7-7--5-xxx-5--9999--9-9-\\-|
E|------------------------------------------------|
Tap to rate this tab
 
# A B C D E F G H I J K L M N O P Q R S T U V W X Y Z