Song name
# A B C D E F G H I J K L M N O P Q R S T U V W X Y Z

Washya - Gift Horse tab

-----------------------------------------------------------------------------
                       Gift Horse - Washya
-----------------------------------------------------------------------------
Tuning: Standard (EBGDAE)
Intro
E|----------------------------------------------------------------------|
B|----------------------------------------------------------------------|
G|----------------------------------------------------------------------|
D|----------------------------------------------------------------------|
A|-1h3p1---1-----------1-2---2-----1/2-2------2-----2-----1-----2p1p0-2-|
E|-------3---3-2-0-1-1-----3---1h3-------/1h3---1h3---1h3---1h3-------0-|

E|-------------------|
B|-0-1/4-4\3-0h1p0-1-|
G|-0-2/5-5\4-------0-|
D|-----------------2-|
A|-----------------3-|
E|-------------------|

Verses
E|------------------------------------------------------|
B|------------------------------------2/5\4\3-0-0h1p0-1-|
G|------------------------------------3/6\5\4-0-------0-|
D|-33333-----22222-55555-44444-222222-----------------2-|
A|-22222-xxx-22222-22222-22222-000000-----------------3-|
E|-------xxx--------------------------------------------|

Chorus
E|-7-7-777-77-5-5-555-55-0-0-000-00-5-555-55-|
B|-7-7-777-77-5-5-555-55-0-0-000-00-7-777-77-|
G|-8-8-888-88-6-6-666-66-1-1-111-11-7-777-77-|
D|-9-9-999-99-7-7-777-77-2-2-222-22-7-777-77-|
A|-9-9-999-99-7-7-777-77-2-2-222-22-5-555-55-|
E|-7-7-777-77-5-5-555-55-0-0-000-00-0-000-00-|

Intro/Outro
E|----------------------------------------------------------------------|
B|----------------------------------------------------------------------|
G|----------------------------------------------------------------------|
D|----------------------------------------------------------------------|
A|-1h3p1---1-----------1-2---2-----1/2-2------2-----2-----1-----2p1p0-2-|
E|-------3---3-2-0-1-1-----3---1h3-------/1h3---1h3---1h3---1h3-------0-|

E|-------------------|
B|-0-1/4-4\3-0h1p0-1-|
G|-0-2/5-5\4-------0-|
D|-----------------2-|
A|-----------------3-|
E|-------------------|
Tap to rate this tab
# A B C D E F G H I J K L M N O P Q R S T U V W X Y Z