Song name
# A B C D E F G H I J K L M N O P Q R S T U V W X Y Z

Washya - Taylor Made tab

-----------------------------------------------------------------------------
                          Taylor Made - Washya
-----------------------------------------------------------------------------
Tuning: Standard (EBGDAE)
Intro
E|---------------------------------------------------------------------|
B|---------------------------------------------------------------------|
G|---------------------------------------------------------------------|
D|---------------------------------------------------------------------|
A|---2---2---2---2---2---2---4---4---4---1---1---1---1---1---3---3---3-|
E|-0---0---0---2---2---2---2---2---2---0---0---0---1---1---1---1---1---|x3
PM * * * * * * * * * * * * * * * * * * * * * * * * * * * * * * * * * *

Ending intro
E|-------------------------------------------|
B|-------------------------------------------|
G|-------------------------------------------|
D|-------------------------------------------|
A|-1h3p1---1-4p3p1---1h4p3p1---1h3p1-------2-|
E|-------3---------3---------3-------4p3p1-0-|
PM ***** * * ***** * ******* * ***** ***** 

Verses
E|---------------<5>------------------------------------------|
B|-2222--<5>---------<5>-----------13----13-------------------|
G|-2222------<5>---------5555-----/12~----12----12-12h14~~~\\-|
D|-2222------------------5555---------------------------------|
A|-----------------------3333---------------------------------|
E|------------------------------------------------------------|

Chorus
E|--------------------------------------------------------------|
B|--------------------------------------------------------------|
G|---------------9------555-------------------------3-3333-55---|
D|-99-9-999-9h10---10p9-555-3-5-3-------------------3-3333-55-5-|
A|-99-9-999-------------333-3-5-3-1h3p1-----1h3p1---1-1111-33-5-|
E|-77-7-777-----------------1-3-1-------4p3-------3-----------3-|
Tap to rate this tab
# A B C D E F G H I J K L M N O P Q R S T U V W X Y Z