Song name
# A B C D E F G H I J K L M N O P Q R S T U V W X Y Z

Washya - Resurrect tab

-----------------------------------------------------------------------------
                         Resurrect - Washya
-----------------------------------------------------------------------------
Tuning: Standard (EBGDAE)
Intro
E|----------------------------|
B|----------------------------|
G|----------------------------|
D|----------------------------|
A|-7/8-7/8----------7/8-7/8-3-|
E|-5/6-5/6-00000000-5/6-5/6-1-|x4
PM         ******** 

Verses
E|-----------------------------------------------------------|
B|-----------------------------------------------------------|
G|-----------------------------------------------------------|
D|---------6p3------------------3h5--------------8p7---------|
A|-------------4p1----------3h6-----1h3--------------5h7-5/7-|
E|-0000000---------00000000-------------00000000---------3/5-|
PM *******         ********             ******** 

Chorus
E|--------------------------------------------------------------------|
B|--------------------------------------------------------------------|
G|--------------------------------------------------------------------|
D|-----------3h5p3-----2------------------9-7h9p7------6--------------|
A|-2-3-4/8\7-------6p5---4p3p2-2-3-4/10\9-7-------10p9---8p7p6-8888\\-|
E|-0-1-2/6\5-------------------0-1-2/8-\7----------------------6666\\-|
Tap to rate this tab
# A B C D E F G H I J K L M N O P Q R S T U V W X Y Z