Song name
# A B C D E F G H I J K L M N O P Q R S T U V W X Y Z

Washya - Live Long And Prosperous tab

-----------------------------------------------------------------------------
                  Live Long And Prosperous - Washya
-----------------------------------------------------------------------------
Tuning: Drop D (EBGDAD)
Intro
E|-------0-------------------3----------------1--------------------------|
B|-----2-----------------------3----------------1------------------------|
G|---4---------0----------------------0----------------11------9------4~-|
D|-----------4-------5-----3--------1-------0--------9-------7------5----|
A|---------2-------3-----1--------3-------0-------/7------/5-----/3------|
D|-0-------------3-----1----------------0--------------------------------|

Verses
E|---2--------------0-------------1-----------------8----------6-----|
B|-----3--------------0-------------1-----------------8----------6---|
G|-------2------4-------------3-------3h5-5555----------7----------5-|
D|----------------4-------------3-----3h5-5555----6----------4-------|
A|-----------2------------1-----------3---3333-/7---------/5---------|
D|-0-------2------------1---1----------------------------------------|

Chorus (Heavy Chugging)
E|------------------------------------------------------------|
B|------------------------------------------------------------|
G|------------------------------------------------------------|
D|-----------------3/4\3--------------------------------------|
A|-----------------1/2\1-2\1\0------------------1h2p1-4\3\1\0-|
E|-0-0-0-0-0-0-0-0-------2\1\0--0-0-0-0-0-0-0-0-------4\3\1\0-|
PM * * * * * * * *              * * * * * * * * 

E|----------------------------------------------------------|
B|----------------------------------------------------------|
G|----------------------------------------------------------|
D|-----------------------5-4--------------------------------|
A|-----------------0h1h2-3-2-2------------8-7-5-7-5-3-5-3-2-|
E|-0-0-0-0-0-0-0-0-----------2-2-2-2-2-2-/8-7-5-7-5-3-5-3-2-|
PM * * * * * * * *                        * * * * * * * *  
Tap to rate this tab
# A B C D E F G H I J K L M N O P Q R S T U V W X Y Z