Song name
# A B C D E F G H I J K L M N O P Q R S T U V W X Y Z

Washya - Diggers Grave tab

-----------------------------------------------------------------------------
                             Digger's Grave - Washya
-----------------------------------------------------------------------------
(Very heavy song)
Tuning: Drop D (DADGBE)
Intro
E|--------------------------------------|
B|--------------------------------------|
G|--------------------------------------|
D|-00-6-5-00-6-5-00-6-5-0-8-7-0-6-5-0-1-|
A|-00-6-5-00-6-5-00-6-5-0-8-7-0-6-5-0-1-|
D|-00-6-5-00-6-5-00-6-5-0-8-7-0-6-5-0-1-|x4
PM ** * * ** * * ** * * * * * * * * * * 

Verses (heavy palm mute)
E|------------------------------------------|
B|------------------------------------------|
G|------------------------------------------|
D|------------------------------------------|
A|---------------------------------5*-------|
D|-0-6-5-8-7-5-1-3-4-0-6-5-8-7-5-3----1-2-3-|
PM * * * * * * * * * * * * * * * *    * * * 

Chorus (loud lots of distortion)
E|-------------------------------------------------------------------|
B|-------------------------------------------------------------------|
G|----------------------------------5555/888\\-----------------------|
D|------0-5-6-0-8-7-5-0-6-5-0-1-3-0-5555/888\\-6-5-0-3-1-3/8-7-5-0-1-|
A|-/12\-0-5-6-0-8-7-5-0-6-5-0-1-3-0-3333/666\\-6-5-0-3-1-3/8-7-5-0-1-|
D|-/12\-0-5-6-0-8-7-5-0-6-5-0-1-3-0------------6-5-0-3-1-3/8-7-5-0-1-|

Lead
E|-------------------------------------------------------------------|
B|-------7h8p7-------8p7p5-----8p7---8p7---8p7------12p10p9----10p9~-|
G|-9b--9-------9-----------7h9-----9-----9-----8/10---------11-------|
D|-9b------------9-7-------------------------------------------------|
A|-------------------------------------------------------------------|
D|-------------------------------------------------------------------|

E|-/10t15p13p10t15p13p10t15p13p10/13t18p15p13t18p15p13/15t20p18p15-15\\-|
B|-----------------------------------------------------------------17\\-|
G|----------------------------------------------------------------------|
D|----------------------------------------------------------------------|
A|----------------------------------------------------------------------|
D|----------------------------------------------------------------------|
Tap to rate this tab
 
# A B C D E F G H I J K L M N O P Q R S T U V W X Y Z