Song name
# A B C D E F G H I J K L M N O P Q R S T U V W X Y Z

Washya - Hyperbaric Chamber tab

-----------------------------------------------------------------------------
         hyperbaric chamber - washya
-----------------------------------------------------------------------------
Tuning: Standard (EBGDAE)
Intro
E|---------------------------------------------------|
B|---------------------------------------------------|
G|---------------------------------------------------|
D|---------------------------------------------------|
A|---------------------------------------------------|
E|-3p0-00-3p0-00-3p0-00-3p0-00-3p0-00-3p0-00-3p0-3p0-|x5

E|------------------------|
B|---------------------6*-|
G|---------------5h6h8----|
D|-------------6----------|
A|--------/5h7------------|
E|-3p0-00-----------------|x1

Verses
E|------------------------|   |-----------------|
B|------------------------|   |--------------8*-|
G|------------------------|   |-------7h8h10----|
D|-3-2-22--3-2-22--3-2-22-|   |-----8-----------|
A|-3-2-22--3-2-22--3-2-22-|   |-7h9-------------|
E|-1-0-00--1-0-00--1-0-00-|x4 |-----------------|x1
PM   * **    * **    * ** 

Chorus
E|---------------------------------------------------------------------|
B|--------------------------------------------/8-----------------------|
G|-----------------------------------------------10p8p7----------------|
D|-22-2-5\4-2-5\4-2-8\7/8-4/5-22-4/5-22-5\4-2-----------8-----9/10---5-|
A|-22-2-5\4-2-5\4-2-8\7/8-4/5-22-4/5-22-5\4-2-------------9p7-9/10---5-|
E|-00-0-3\2-0-3\2-0-6\5/6-2/3-00-2/3-00-3\2-0-----------------7/8--x-3-|
Tap to rate this tab
# A B C D E F G H I J K L M N O P Q R S T U V W X Y Z