Song name
# A B C D E F G H I J K L M N O P Q R S T U V W X Y Z

Washya - Punishment Of Capital tab

-----------------------------------------------------------------------------
                     Punishment Of Capital - Washya
-----------------------------------------------------------------------------
Tuning: Standard (EBGDAE)
Intro
E|--------|
B|--------|
G|-5----9-|
D|-5-5-/9-|
A|-3-5-/7-|
E|---3----|

Verses
E|-------------------------------------------------------------------------|
B|-------------------------------------------------------------------------|
G|-------------------------------------------------------------------------|
D|-------------------------------------------------------------------------|
A|-5h7-----10p7------5h7-5h7-----5h7-----10p7-----5---5h7-----5h7-----10p7-|
E|-----000------0000---------000-----000------000---7-----000-----000------|
PM     ***      ****         ***     ***      ***         ***     *** 

E|-------------------|
B|-------------------|
G|---------------7\\-|
D|---------------7\\-|
A|-9-8-7-6-5-4-3-5\\-|
E|-7-6-5-4-3-2-1-----|
PM * * * * * * *  

Chorus
E|------------------------------------------------------------------------|
B|------------------------------------------------------------------------|
G|------------------------------------------------------------------------|
D|------------------------------------------------------------------------|
A|----4/5----4/5---5\4---4/5---5\4-5\4---4/5---5\4-999-888-777-555-333-22-|
E|-00-2/3-00-2/3-0-3\2-0-2/3-0-3\2-3\2-0-2/3-0-3\2-777-666-555-333-111-00-|
PM **     **     *     *     *         *     *     *** *** *** *** *** ** 

Interlude
E|-----------------------------------------------------------|
B|-----------------------------------------------------------|
G|-------------------------------------------------------7\\-|
D|-77-------55-------33----------------------------------7\\-|
A|----------------------------77-------55-------33-2-4-5-5\\-|
E|----0h2h3----0h2h3----0h2h3----0h2h3----0h2h3----0-2-3-----|x3
PM ** ***** ** ***** ** ***** ** ***** ** ***** ** 

Solo
E|-22b-----21b-21b-21b-21b-|
B|-20b-20b-22b-22b-22b-22b-|
G|-----18b-----------------|
D|-------------------------|
A|-------------------------|
E|-------------------------|

E|---------20-------------------------------------------------17~~-|
B|-21b~-21----21p19p18----21p19p18----------------------18p17------|
G|---------------------19----------19p17p16----19p18p16------------|
D|------------------------------------------17---------------------|
A|-----------------------------------------------------------------|
E|-----------------------------------------------------------------|

E|-/20202020p17----17h2020202020p17----17h2020202020p17----|
B|--------------18------------------18------------------18-|
G|---------------------------------------------------------|
D|---------------------------------------------------------|
A|---------------------------------------------------------|
E|---------------------------------------------------------|

E|---------------------------------------------------------|
B|-17h19191919p17----17h19191919p17----17h1919191919p17----|
G|----------------19----------------19------------------19-|
D|---------------------------------------------------------|
A|---------------------------------------------------------|
E|---------------------------------------------------------|

E|-17h212p17h2121p17h21p17h21p17----17h2121p17h21p17h212121p17----|
B|-------------------------------18----------------------------18-|
G|----------------------------------------------------------------|
D|----------------------------------------------------------------|
A|----------------------------------------------------------------|
E|----------------------------------------------------------------|

E|-------------------------------------------------------------------------|
B|-19p15----19p15----19p15h191919191919p15----19p15h191919191919p15--------|
G|-------16-------16-----------------------16-----------------------16~~\\-|
D|-------------------------------------------------------------------------|
A|-------------------------------------------------------------------------|
E|-------------------------------------------------------------------------|

Tuning: Standard (EBGDAE)
Intro
E|--------|
B|--------|
G|-5----9-|
D|-5-5-/9-|
A|-3-5-/7-|
E|---3----|

Verses
E|-------------------------------------------------------------------------|
B|-------------------------------------------------------------------------|
G|-------------------------------------------------------------------------|
D|-------------------------------------------------------------------------|
A|-5h7-----10p7------5h7-5h7-----5h7-----10p7-----5---5h7-----5h7-----10p7-|
E|-----000------0000---------000-----000------000---7-----000-----000------|
PM     ***      ****         ***     ***      ***         ***     *** 

E|-------------------|
B|-------------------|
G|---------------7\\-|
D|---------------7\\-|
A|-9-8-7-6-5-4-3-5\\-|
E|-7-6-5-4-3-2-1-----|
PM * * * * * * *  

Chorus
E|------------------------------------------------------------------------|
B|------------------------------------------------------------------------|
G|------------------------------------------------------------------------|
D|------------------------------------------------------------------------|
A|----4/5----4/5---5\4---4/5---5\4-5\4---4/5---5\4-999-888-777-555-333-22-|
E|-00-2/3-00-2/3-0-3\2-0-2/3-0-3\2-3\2-0-2/3-0-3\2-777-666-555-333-111-00-|
PM **     **     *     *     *         *     *     *** *** *** *** *** ** 

Interlude
E|-----------------------------------------------------------|
B|-----------------------------------------------------------|
G|-------------------------------------------------------7\\-|
D|-77-------55-------33----------------------------------7\\-|
A|----------------------------77-------55-------33-2-4-5-5\\-|
E|----0h2h3----0h2h3----0h2h3----0h2h3----0h2h3----0-2-3-----|x3
PM ** ***** ** ***** ** ***** ** ***** ** ***** ** 
Tap to rate this tab
 
# A B C D E F G H I J K L M N O P Q R S T U V W X Y Z