Song name
# A B C D E F G H I J K L M N O P Q R S T U V W X Y Z

Washya - Alien Muton tab

-----------------------------------------------------------------------------
                          Alien Muton - Washya 
-----------------------------------------------------------------------------
Tuning: Drop D (EBGDAD)
Intro (slow bend) 
E|-----15b-| 
B|----/17b-| 
G|---------|
D|---------|
A|---------|
D|-00------|x16

Part 2
E|-------------------------------------------|
B|-------------------------------------------|
G|-------------------------------------------|
D|-------------------------------------------|
A|-------------------------------------------|
D|-555555-333333-222222-555555-333333-222222-|x3
AH ++++++ ++++++ ++++++ ++++++ ++++++ ++++++ 

Verses
E|-------------------------------------16b-|
B|-------------------------------------18b-|
G|-----------------------------------------|
D|-----------------------------------------|
A|--------1-----1---1-------2\1------------|
D|-//xx\\-1-000-1-0-1-0-000-2\1-0-0000-----|
PM          ***   *     ***       **** 

Verses
E|-----14----------14----------16----------16\\-|
B|-16b---------16b---------18b---------18b------|
G|----------------------------------------------|
D|----------------------------------------------|
A|----------------------------------------------|
D|--------0000--------0000--------0000----------|
PM        ****        ****        **** 

Chorus (heavy section chorus)
E|--------------------------------------------------------------------------|
B|--------------------------------------------------------------------------|
G|------5--------------------------------------7777-------------------------|
D|------5--------------------------------------7777-------------------------|
A|-12\\-3-111/2\1/6-0-6-0-3-0-5-0-3/7\\-//12\\-5555-5/7-5/8-3/5-0-5-0-1-0-3-|
D|-12\\---111/2\1/6-0-6-0-3-0-5-0-3/7\\-//12\\------5/7-5/8-3/5-0-5-0-1-0-3-|


Verses
E|-------------------------------------16b-|
B|-------------------------------------18b-|
G|-----------------------------------------|
D|-----------------------------------------|
A|--------1-----1---1-------2\1------------|
D|-//xx\\-1-000-1-0-1-0-000-2\1-0-0000-----|
PM          ***   *     ***       **** 

Verses
E|-----14----------14----------16----------16\\-|
B|-16b---------16b---------18b---------18b------|
G|----------------------------------------------|
D|----------------------------------------------|
A|----------------------------------------------|
D|--------0000--------0000--------0000----------|
PM        ****        ****        **** 
Tap to rate this tab
 
# A B C D E F G H I J K L M N O P Q R S T U V W X Y Z