Song name
# A B C D E F G H I J K L M N O P Q R S T U V W X Y Z

Washya - Black Holes And Distant Galaxies tab

-----------------------------------------------------------------------------
                   Black Holes And Distant Galaxies - Washya
-----------------------------------------------------------------------------
Tuning: Standard (EBGDAE)
Intro
E|--------------------------------------------------------|
B|--------------------------------------------------------|
G|-------------------------------------------2bp0---------|
D|------------------------------------------------0h2p0---|
A|---10\9------10bp9------10b------10\9-----------------2-|
E|-0------0-00-------0-00-----0-00------0-00--------------|

Verses
E|-------------------------------------------------------------------|
B|-------------------------------------------------------------------|
G|-------------------------------------------------------------------|
D|---6b------6b-----8b---8b------8b---7-------7b--------------3b-----|
A|----------------------------------------7----------55-5-3--------3-|
E|-4----44-4----4/6----6----66-6----5---5---5----5\3-33-3-1-1----1---|
PM *    ** *    * *    *    ** *    *   *   *    * *        *    * 

Chorus
E|--------------------------------------------------------------------------|
B|--------------------------------------------------------------------------|
G|--------------------------------------------------------------------------|
D|-----7b-----6b---------7b---------10b-----3b---------3b-1---1h3p1---------|
A|---------------6---9-7----------8------------3p2p0--------2---------7-9\\-|
E|-5-5----5\4------8-7-5----99-88-6-----3\1----------1--------------3/5-7\\-|
PM * *    * *      *        ** **       * *          *              * 

Lead
E|---------------12----12----13p12------------------------------------13h15-|
B|------------11----11----11-------------------------------------/13b-------|
G|-/5b/10bp7b----------------------/10~-/3h4p3h4p3h4/8p6h8p6h8p6------------|
D|--------------------------------------------------------------------------|
A|--------------------------------------------------------------------------|
E|--------------------------------------------------------------------------|

E|-13h15p13h15p13h15\\-|
B|---------------------|
G|---------------------|
D|---------------------|
A|---------------------|
E|---------------------|

Tuning: Standard (EBGDAE)
Intro
E|--------------------------------------------------------|
B|--------------------------------------------------------|
G|-------------------------------------------2bp0---------|
D|------------------------------------------------0h2p0---|
A|---10\9------10bp9------10b------10\9-----------------2-|
E|-0------0-00-------0-00-----0-00------0-00--------------|

Verses
E|-------------------------------------------------------------------|
B|-------------------------------------------------------------------|
G|-------------------------------------------------------------------|
D|---6b------6b-----8b---8b------8b---7-------7b--------------3b-----|
A|----------------------------------------7----------55-5-3--------3-|
E|-4----44-4----4/6----6----66-6----5---5---5----5\3-33-3-1-1----1---|
PM *    ** *    * *    *    ** *    *   *   *    * *        *    * 

Chorus
E|--------------------------------------------------------------------------|
B|--------------------------------------------------------------------------|
G|--------------------------------------------------------------------------|
D|-----7b-----6b---------7b---------10b-----3b---------3b-1---1h3p1---------|
A|---------------6---9-7----------8------------3p2p0--------2---------7-9\\-|
E|-5-5----5\4------8-7-5----99-88-6-----3\1----------1--------------3/5-7\\-|
PM * *    * *      *        ** **       * *          *              * 
Tap to rate this tab
 
# A B C D E F G H I J K L M N O P Q R S T U V W X Y Z