Song name
# A B C D E F G H I J K L M N O P Q R S T U V W X Y Z

Washya - Ricochet tab

-----------------------------------------------------------------------------
                           Ricochet - Washya
-----------------------------------------------------------------------------
Tuning: Standard (EBGDAE)
Intro/Chorus
E|------------------------------------------------------|
B|------------------------------------------------------|
G|-999-99-9-999-9-9-777-77-7-777-7-7--------------------|
D|-999-99-9-999-9-9-777-77-7-777-7-7-333-33-3-333-3-3-2-|
A|-777-77-7-777-7-7-555-55-5-555-5-5-333-33-3-333-3-3-2-|
E|-----------------------------------111-11-1-111-1-1-0-|x3

Verses
E|--------------------------------------------------------------------------|
B|----------------------------------/10-8-7-8-7-5-7-5-4-5-4-2---2-1---------|
G|----/-9-7-6-7-6-4-6-4---4-3---------------------------------4-------------|
D|-22-------------------6--------33---------------------------------3~---55-|
A|-22-------------------------5~-33--------------------------------------55-|
E|-00----------------------------11--------------------------------------33-|
PM **                            **                                      **

Solo/Lead
E|----------------------------------------------------------------------12-|
B|-12-10-9-10-9-7-9-7-6-7-6-4-6-4-3-4-3-1-----------------------10-9-10----|
G|----------------------------------------3-/-5-3-5-6-5-6/9-8-9------------|
D|-------------------------------------------------------------------------|
A|-------------------------------------------------------------------------|
E|-------------------------------------------------------------------------|

E|-12h15-14-12-14-12-10-12-10-------------------------------------------6-|
B|----------------------------12-10-12-10-9-10-9----9-7-6-7-6---9-7-6-----|
G|-----------------------------------------------10-----------7-------7---|
D|------------------------------------------------------------------------|
A|------------------------------------------------------------------------|
E|------------------------------------------------------------------------|

E|-6---------------------------------------------------------6-5-3---------|
B|---7---------------------9-7-6-----------6-7-6-7-----6-9-7-------5-3-5~\-|
G|-----8-7-8-7-5-7-5-4-5-7-------9-6-7-9-7---------6-7---------------------|
D|-------------------------------------------------------------------------|
A|-------------------------------------------------------------------------|
E|-------------------------------------------------------------------------|

Tuning: Standard (EBGDAE)
Intro/Chorus
E|------------------------------------------------------|
B|------------------------------------------------------|
G|-999-99-9-999-9-9-777-77-7-777-7-7--------------------|
D|-999-99-9-999-9-9-777-77-7-777-7-7-333-33-3-333-3-3-2-|
A|-777-77-7-777-7-7-555-55-5-555-5-5-333-33-3-333-3-3-2-|
E|-----------------------------------111-11-1-111-1-1-0-|x3

Verses
E|--------------------------------------------------------------------------|
B|----------------------------------/10-8-7-8-7-5-7-5-4-5-4-2---2-1---------|
G|----/-9-7-6-7-6-4-6-4---4-3---------------------------------4-------------|
D|-22-------------------6--------33---------------------------------3~---55-|
A|-22-------------------------5~-33--------------------------------------55-|
E|-00----------------------------11--------------------------------------33-|
PM **                            **                                      **
Tap to rate this tab
# A B C D E F G H I J K L M N O P Q R S T U V W X Y Z