Song name
# A B C D E F G H I J K L M N O P Q R S T U V W X Y Z

Washya - Knights Of The Round Table tab

-----------------------------------------------------------------------------
               Knights Of The Round Table - Washya
-----------------------------------------------------------------------------
Tuning: Standard (EBGDAE)
Intro
E|--------------|
B|--------------|
G|--------------|
D|--------------|
A|--------------|
E|-0-2-3--7-7-8-|x4 

Part 2
E|-----------------------------|
B|-----------------------------|
G|-/9b-7-6~--------------------|
D|----------/7h9p7p6h7p6p4-----|
A|-------------------------6\\-|
E|-----------------------------|

Part 3
E|--------------------------------|
B|--------------------------------|
G|--------------------------------|
D|-5-2-4-5--5-4-0-/7-4-6-7--7-6---|
A|------------------------------4-|
E|--------------------------------|x4

All Verses
E|-------------------------------------------------------------------|
B|-------------------------------------------------------------------|
G|-------------------------------------------------------------------|
D|---6h7h9---6h7h9------------2h3h5---2h3h5------------4h5h7---4h5h7-|
A|-------------------6h7h9--------------------2h3h5------------------|
E|-9-------9-------9-------/5-------5-------5-------/7-------7-------|
PM * ***** * ***** * *****  * ***** * ***** * *****  * ***** * ***** 

Chorus
E|-------------------------------------------------------------|
B|-------------------------------------------------------------|
G|-------------------------------------------------------------|
D|-------------------------------------------3-----/6----------|
A|-22--222-22-22--22-222-22-22--33-333-33-33---2p1----5p4------|
E|-00--000-00-00--00-000-00-00--11-111-11-11--------------5*\\-|
PM **  *** ** **  ** *** ** **  ** *** ** ** 
Tap to rate this tab
# A B C D E F G H I J K L M N O P Q R S T U V W X Y Z